PrimaNota.ru - самый крупный в мире бесплатный архив песенных текстов, аккордов, табулатур и нот


Blitzkid - Cold Skin - таба, видео

Регистрация Запомнить меня
Войти через:  Facebook Google Twitter Vk Yandex Mail.ru

Blitzkid - Cold Skin - таба, видео

Печатать
Просмотров: 161
Blitzkid - Cold Skin

By: skyturnedred@gmail.com

Tuning one-step down: DGCFAD

I tab all Blitzkid songs one-step down,
But this can easily be played in Eb.


INTRO:
|-------------------------|
|-------------------------|
|-------------------------|
|-8-----8-----8----6-8----|
|-8-----8-----8----6-8----|
|-6-----6-----6----4-6----|

|--------------------------|
|--------------------------|
|--------------------------|
|-6-8----6-8----6-8---6-8--|
|-6-8----6-8----6-8---6-8--|
|-4-6----4-6----4-6---4-6--|


VERSE:
|---------------------|
|---------------------|
|----------6666-------|
|-88888888-6666-6666--| x4
|-88888888-4444-6666--|
|-66666666------4444--|

 "Never had a chance to say to you
  all the ways I ever cared for you
  But now you're gone you're locked inside this tomb
  You're sealed away in fate's cold and concrete womb"


CHORUS:
|------------------------------------------|
|------------------------------------------|
|------------------------------------------|
|----------66666666------------------------|
|-44444444-44444444-66666666-8------6------|
|-22222222----------44444444-6-6666-4-4444-|
                               ....   ....
 "I want to stay here forever
  though your presence, it cuts like a knife"

|------------------------------------------|-----------|
|------------------------------------------|-----------|
|------------------------------------------|-----------|
|----------66666666------------------------|-----------|
|-44444444-44444444-66666666-8------6------|-4----4444-|
|-22222222----------44444444-6-6666-4-4444-|-2----2222-|
                               ....   ....
 "I want to wrap my arm's around you
  though your soft skin, it grows cold as ice"


Repeat VERSE: "Peaceful one laid in peaceful repose
               Those eyes held skys, the highest that I've known
               Your arms do fold. so silent 'cross your chest
               Give you my life until I catch up with your death"

Repeat CHORUS


SOLO rhythm: (not sure about this)

|---------------------|
|---------------------|
|---------------------|
|---------------------| x3
|-33333333-4444-6666--|
|-11111111-2222-4444--|

|---------------------|
|---------------------|
|---------------------|
|---------------6-5---|
|-33333333-4444-4-3---|
|-11111111-2222-------|


Repeat CHORUS x2


OUTRO:
|---------------------|
|---------------------|
|---------------------|
|---------------------| x8
|-8888-4444-66666666--|
|-6666-2222-44444444--|
 "It cuts like a knife"

|---------|
|---------|
|---------|
|-4-------|
|-4-------|
|-2-------|
 "I wanna stay..."
Добавлено: 25.03.2012
Другие материалы по этой песне:
  • Аккорды и текст

Страница создана 25.03.2012
http://primanota.ru/blitzkid/cold-skin-chords.htm
Привет, Гость.
Предлагаем пройти революционный курс по гитаре.
Подарок от PrimaNota.Ru, забирай!