PrimaNota.ru - самый крупный в мире бесплатный архив песенных текстов, аккордов, табулатур и нот


Blitzkid - Carve Out A Heart - таба, видео

Регистрация Запомнить меня
Войти через:  Facebook Google Twitter Vk Yandex Mail.ru

Blitzkid - Carve Out A Heart - таба, видео

Печатать
Просмотров: 190
Blitzkid
Song: Carve Out a Heart
Album: Five Cellars Below
6:10

Drop C. Just put it as a 12/6 Time Sig. I didnt wanna keep typing in the same tabs over 
and over again in the middle, look for the codes for Ex. ~1&2~/^1&2^. Their may be more 
so be on the look out, and it might be alot eaiser if you memorized the parts.

P.M.: ~~~~~~~~~~~
Slide: Up /
       Down \

Inro......

Guitar Intro (GTR. 2)
D|---------------------------|
A|---------------------------|
F|---------------------------|
C|---------------------------|
G|---------------------5-3-0-|
C|---------------3-1-3-------|

Guitar 1 Intro                Coda*    Dont pass the Coda on the 4th time
D|---------------------------------*------------------------|
A|---------------------------------*------------------------|
F|-12------10------8---------------*--10-12-10-----10----10-|
C|------------------------12--12---*------------------12----| x3
G|---------------------------------*------------------------|
C|---------------------------------*------------------------|

Jump here on the 4th time
|----------------------|
|----------------------|
|-10-12-10-8-----------|
|------------12-10-8-7-|
|----------------------|
|----------------------|

**Guitar 2 Intro**
D|--------------------------|--------------------------|
A|--------------------------|--------------------------|
F|--------------------------|--------------------------|
C|-5-5-5-5-5-5--5-5-5-5-5-8-|-1-1-1-1-1-1--3-3-3-3-1-3-| x4
G|-5-5-5-5-5-5--5-5-5-5-5-8-|-1-1-1-1-1-1--3-3-3-3-1-3-|
C|-5-5-5-5-5-5--5-5-5-5-5-8-|-1-1-1-1-1-1--3-3-3-3-1-3-|


~GTR.1&2 Verse~  Ive cut too deep this time.....
D|-----------------------------------------------------|
A|-----------------------------------------------------|
F|-----------------------------------------------------|
C|-5-5-5-5-5-5--5-5-5-5-5-8-|-1-1-1-1-1-1--3-3-3-3-1-3-| x4
G|-5-5-5-5-5-5--5-5-5-5-5-8-|-1-1-1-1-1-1--3-3-3-3-1-3-|
C|-5-5-5-5-5-5--5-5-5-5-5-8-|-1-1-1-1-1-1--3-3-3-3-1-3-|
   ~~~~~~~~~~~  ~~~~~~~~~~~   ~~~~~~~~~~~  ~~~~~

~1&2~     Such a sick elegance...
D|--------------------------|--------------------------|
A|--------------------------|--------------------------|
F|--------------------------|--------------------------|
C|-5-5-5-5-5-5--5-5-5-5-5-8-|-1-1-1-1-1-1--3-3-3-3-1-3-| x4
G|-5-5-5-5-5-5--5-5-5-5-5-8-|-1-1-1-1-1-1--3-3-3-3-1-3-|
C|-5-5-5-5-5-5--5-5-5-5-5-8-|-1-1-1-1-1-1--3-3-3-3-1-3-|
                                                 ^
                                                 ^p.m. 3 fret 4th time only
^1&2^     I'll wait for you...
D|--------------------------|--------------------------|
A|--------------------------|--------------------------|
F|--------------------------|--------------------------|
C|-1-1-1-1-1-1--1-1-1-1-1-1-|-8-8-8-8-8-8--8-8-8-8-8-8-|
G|-1-1-1-1-1-1--1-1-1-1-1-1-|-8-8-8-8-8-8--8-8-8-8-8-8-|
C|-1-1-1-1-1-1--1-1-1-1-1-1-|-8-8-8-8-8-8--8-8-8-8-8-8-|

|--------------------------|--------------------------|
|--------------------------|--------------------------|
|--------------------------|--------------------------|
|-3-3-3-3-3-3--3-3-3-3-3-3-|-5-5-5-5-5-5--3-3-3-3-3-3-| x2
|-3-3-3-3-3-3--3-3-3-3-3-3-|-5-5-5-5-5-5--3-3-3-3-3-3-|
|-3-3-3-3-3-3--3-3-3-3-3-3-|-5-5-5-5-5-5--3-3-3-3-3-3-|

**Guitar 2 Intro**


~~GTR.1&2~~ Verse   Quiet seems loud today...

  ~1&2~             You were my one true friend...
  ^1&2^             And i'll wait for you...

Solo
D|-------------------------------------------------|
A|-------------------------------------------------|
F|-------------------------------------------------|
C|-5-5-5-5-5-5--5-5-5-5-5-5\1-1-1/6-6-6\5-5-5\3-3-3| x2
G|-------------------------------------------------|
C|-------------------------------------------------|

|-------------------------|-------------------------|
|-------------6-----------|-------------------------|
|-------5-7-8---8-7-5-----|-----7-5-----------------|
|-5-7-8---------------7-5-|-5-8-----8-7-8-7-5---5-7-|
|-------------------------|-------------------8-----|
|-------------------------|-------------------------|

|-------------------------------------------------------------------------|
|-------------------------------------------------------------------------|
|-------------------------------------------------------------------------|
|-8-7-5---5-7--8-7-5---5-7--8-7-8/15-15-15-15-15-13-13-12-12-13-----------|
|-------8------------8----------------------------------------------------|
|-------------------------------------------------------------------------|

^1&2^      All wait for you....

**Guitar 2 Intro**

Outro.....
Добавлено: 30.03.2012
Другие материалы по этой песне:
  • Аккорды и текст

Страница создана 30.03.2012
http://primanota.ru/blitzkid/carve-out-a-heart-chords.htm
Привет, Гость.
Предлагаем пройти революционный курс по гитаре.
Подарок от PrimaNota.Ru, забирай!