PrimaNota.ru - самый крупный в мире бесплатный архив песенных текстов, аккордов, табулатур и нот


Blitz Kids - Sold My Soul - таба, видео

Регистрация Запомнить меня
Войти через:  Facebook Google Twitter Vk Yandex Mail.ru

Blitz Kids - Sold My Soul - таба, видео

Печатать
Просмотров: 94
-------------------------------------------------------------------------------
                             SOLD MY SOUL - BLITZ KIDS
-------------------------------------------------------------------------------
Tabbed by:
Matthew

Tuning:
C#, G#, C#, F#, A#, D#.

Intro
D#|----------------------------|  \
A#|----------------------------|  |
F#|----------------------------|  | x2
C#|--0--0--0--0--0--0--0--3-2--|  |
G#|--0--0--0--0--0--0--0--3-2--|  |
C#|--0--0--0--0--0--0--0--3-2--|  /

Verse Pt.1                                                    \
D#|----------------------------|  \                           |
A#|----------------------------|  |                           |
F#|----------------------------|  | x2                        |
C#|--0--0--0--0--0--0--0--3-2--|  |                           |
G#|--0--0--0--0--0--0--0--3-2--|  |                           |
C#|--0--0--0--0--0--0--0--3-2--|  /                           |
                                                              |x2 = Verse
Verse Pt.1                                                    |
D#|-------------------------------------------------------|   |
A#|-------------------------------------------------------|   | 
F#|-------------------------------------------------------|   |
C#|-7-7-7-7-5-5-5-5-3-3-3-3-2-2-2-2--3--3--3--3--2--2--2--|   |
G#|-7-7-7-7-5-5-5-5-3-3-3-3-2-2-2-2--3--3--3--3--2--2--2--|   |
C#|-7-7-7-7-5-5-5-5-3-3-3-3-2-2-2-2--3--3--3--3--2--2--2--|   /

Chorus                                                    
D#|------------------------------------|  
A#|------------------------------------|  
F#|------------------------------------|  
C#|--3------7------9-----5--7--5--3-3-0|  
G#|--3(x16)-7(x16)-9(x8)-5--7--5--3-3-0|  
C#|--3------7------9-----5--7--5--3-3-0|  

BRIDGE IS SAME AS CHORUS


Order:
Intro
Verse
Chorus
Verse
Chorus
Bridge (repeat Chorus Part)
Chorus
End

Добавлено: 02.11.2015
Вам также может быть интересно:
Другие материалы по этой песне:
  • Аккорды и текст

Страница создана 02.11.2015
http://primanota.ru/blitz-kids/sold-my-soul-chords.htm
Привет, Гость.
Предлагаем пройти революционный курс по гитаре.
Подарок от PrimaNota.Ru, забирай!