PrimaNota.ru - самый крупный в мире бесплатный архив песенных текстов, аккордов, табулатур и нот


Blink 182 - Up All Night - аккорды и текст, таба, бас-таба, видео

Регистрация Запомнить меня
Войти через:  Facebook Google Twitter Vk Yandex Mail.ru

Blink 182 - Up All Night - аккорды и текст, таба, бас-таба, видео

Печатать
Просмотров: 863
Up All Night
Blink 182
Blink 182 - Up All Night

Bass intro:
e|------------------------------------------------|
B|------------------------------------------------|
G|------------------------------------------------|
D|------------------------------------------------|
A|------------------5-----------------------------|
E|--7--6--5----4-------(x2)----7--6--5----4----3--|


Riff:
    A   Ab   E   E          A   Ab  E     A  E   Eb  D
e|-----------------------------------------------------------|
B|-----------------------------------------------------------|
G|----------------9-9-9--------------------------------------|
D|--7---6---(2)---9-9-9-----7---6---(2)---7--9-9-8-8-7-7-----|
A|--7---6---(2)---7-7-7-----7---6---(2)---7--9-9-8-8-7-7-----|
E|--5---4----0--------------5---4----0----5--7-7-6-6-5-5-----|

(It's easier to play by hitting open E than doing the lower E powerchord!)


Verse:
    A
e|--------|
B|--------|
G|--------|
D|--7-----|
A|--x-----|
E|--5-----|  (play throughout the verse)


A                             F#m        D
Everyone wants to call it all around our life with a better name.
A                                 F#m             D
Everyone falls and spins and gets up again with a friend who does the same.
A                              F#m                 D
Everyone lies and cheats their wants and needs and still believes their heart.
A                                 F#m                      D
And Everyone gets the chills, the kind that kills when the pain begins to start.


Chorus:
      F#m    Ab   A    E       F#m    D (E  A)
e|---------------------------------------------|
B|---------------------------------------------|
G|---------------------9--------------7--9-----|
D|-----4-----6----7----9--------4-----7--9--7--|
A|-----4-----6----7----7--------4-----5--7--7--| 
E|-----2-----4----5-------------2-----------5--|  


       F#m
Let me get this straight.
       Ab
Do you want me here?
     A
As I struggle through
         E
Each and every year.
    F#m
And all these demons,
     D       E      A
They keep me up all night 

(second guitar starts here)

    A                    E           D   
e|-----------------------------------------------------|
B|-----------------------------------------------------|
G|-----------------------------------------------------|
D|--7--9--11-9--11-12----9--11-12-11-12-12-------------|
A|--x--x--x--x--x--x-----x--x--x--x--x--x--------------|
E|--5--7--9--7--9--11----7--9--11-9--10-10-------------|

A    E       D      A
They keep me up all night
A    E       D      A
They keep me up all night
A    E       D      A
They keep me up all night



Riff:
    A   Ab   E   E          A   Ab  E     A  E   Eb  D
e|-----------------------------------------------------------|
B|-----------------------------------------------------------|
G|----------------9-9-9--------------------------------------|
D|--7---6---(2)---9-9-9-----7---6---(2)---7--9-9-8-8-7-7-----|
A|--7---6---(2)---7-7-7-----7---6---(2)---7--9-9-8-8-7-7-----|
E|--5---4----0--------------5---4----0----5--7-7-6-6-5-5-----|



Everyone's cross to bears the crown they wear on endless holiday.
Everyone raises kids in a world that changes life to a bitter game.
Everyone works and fights, stays up all night to celebrate the day.
And everyone lives to tell the tale of how we die alone some day.

Let me get this straight, do you want me here?
As I struggle through each and every year.
And all these demons, they keep me up all night.
They keep me up all night.
They keep me up all night.
They keep me up all night.
They keep me up all night.

Outro:
    A   Ab   E   E          A   Ab  E     A  E   Eb  D
e|-----------------------------------------------------------|
B|-----------------------------------------------------------|
G|----------------9-9-9--------------------------------------|
D|--7---6---(2)---9-9-9-----7---6---(2)---7--9-9-8-8-7-7-----|
A|--7---6---(2)---7-7-7-----7---6---(2)---7--9-9-8-8-7-7-----|
E|--5---4----0--------------5---4----0----5--7-7-6-6-5-5-----|
Добавлено: 10.04.2012
Другие материалы по этой песне:

Страница создана 01.03.2012
http://primanota.ru/blink-182/up-all-night-chords.htm
Привет, Гость.
Предлагаем пройти революционный курс по гитаре.
Подарок от PrimaNota.Ru, забирай!