PrimaNota.ru - самый крупный в мире бесплатный архив песенных текстов, аккордов, табулатур и нот


Blink 182 - Take Off Your Pants And Jacket - аккорды и текст, таба, видео

Регистрация Запомнить меня
Войти через:  Facebook Google Twitter Vk Yandex Mail.ru

Blink 182 - Take Off Your Pants And Jacket - аккорды и текст, таба, видео

Печатать
Просмотров: 411
Уроки эстрадного вокала в Санкт-Петербурге
Take Off Your Pants And Jacket
Blink 182
Blink 182
Take Off Your Pants And Jacket
2001 MCA Records
Submitted by: paramore_fans@yahoo.com

Tracklist:
1.) Anthem Part 2
2.) Online Songs
3.) First Date
4.) Happy Holidays You Bastard
5.) Story Of A Lonely Guy
6.) The Rock Show
7.) Stay Together For The Kids
8.) Roller Coaster
9.) Reckless Abandon
10.) Everytime I Look For You
11.) Give Me One Good Reason
12.) Shut Up
13.) Please Take Me Home

Bonus Tracks:
14.) Don't Tell Me It's Over
15.) Time To Break Up
16.) What Went Wrong
17.) Fuck A Dog
18.) When You Fucked Grandpa
19.) Mother's Day

_______________________________________________

1.) Anthem Part 2

Key: C

Tuning: Standard EADGBe

Chords used:
C -   x32010
Dm -  xx0231
Am -  x02210
F -   133211
C/E - 032xxx or Em - 022000
G -   320003


Intro:

Part 1:

C(hold) x2

Guitar 2:
e|-3---3---1---1---0---0---1---1---|
B|---1---1---1---1---1---1---1---1-|
G|---------------------------------|
D|---------------------------------| x2
A|---------------------------------|
E|---------------------------------|

Part 2: C--Dm--Am--F x4

Guitar 2:
e|-3---3---1---1---0---0---1---1---|
B|---1---1---1---1---1---1---1---1-|
G|---------------------------------|
D|---------------------------------| x4
A|---------------------------------|
E|---------------------------------|

Guitar 3: will enter at 3rd time
e|---------------|-----------------|
B|---------------|-----------------|
G|---------------|-----------------|
D|-------3-----2-|-----0-------0---| x2
A|-3-3-3---3-3---|-3-3---3-3-3---3-|
E|---------------|-----------------|
        x3

Part 3:

C--Am-F x2

Guitar 2:
e|-0--1--0-----0--1--0--------0--1--0-----0--1----|
B|----------1-----------1--3-----------1--------1-|
G|------------------------------------------------|
D|------------------------------------------------|
A|------------------------------------------------|
E|------------------------------------------------|


Verse 1:
C              Am        F
Everything has fallen to pieces
C              Am      F
Earth is dying help me Jesus
C                Am         F
We need guidance we've been misled
C                 Am       F
Young and hostile but not stupid


Mark:
    Am       G      F
G|---9---|---7---|---5-|
D|-7---7-|-5---5-|-3---|
A|-------|-------|-----|
E|-------|-------|-----|


Verse 2:
C                 Am  F
Corporate leaders politicians
C                Am     F
Kids can't vote adults elect them
C                   Am        F
Moms that rule the school and workplace
C                  Am        F
Signs that caution sixteen's unsafe

Mark:
    Am       G      F
G|---9---|---7---|---5-|
D|-7---7-|-5---5-|-3---|
A|-------|-------|-----|
E|-------|-------|-----|


Chorus:
          C/E  F  C        G
We really need to see this through
         C/E F      C   G
We never wan-ted to be abused
            Am   F   C      G
We'll never give up it's no use
   Am              F(hold)
If we're fucked up you're to blame


(Repeat Intro Part 3)


Verse 2:
C                   Am         F
Let this trainwreck burn more slowly
C                Am       F
Kids are victims in this story
C                      Am      F
Drowned our youth with useless warnings
C                      Am         F
Teenage rules: they're fucked and boring


Mark:
    Am       G      F
G|---9---|---7---|---5-|
D|-7---7-|-5---5-|-3---|
A|-------|-------|-----|
E|-------|-------|-----|


(Repeat Chorus)


Interlude:

Mark:
         C             Am         F
G|-----------------|---------|---------|
D|-----------------|---------|---------|
A|-3-3-3-3-3-3-3-3-|-0-0-0-0-|---------| x2
E|-----------------|---------|-1-1-1-1-|


Interlude:
C              Am        F
Everything has fallen to pieces
C              Am        F
Everything has fallen to pieces
C(all the way)
Everything has fallen to piece
Everything has fallen to


(Repeat Chorus)


Outro:

C--Dm--Am--F x2

Guitar 3:
e|---------------|-----------------|
B|---------------|-----------------|
G|---------------|-----------------|
D|-------3-----2-|-----0-------0---| x2
A|-3-3-3---3-3---|-3-3---3-3-3---3-|
E|---------------|-----------------|
        x3

Guitar 2:
e|-3---3---1---1---0---0---1---1---|
B|---1---1---1---1---1---1---1---1-|
G|---------------------------------|
D|---------------------------------| x2
A|---------------------------------|
E|---------------------------------|

____________________________________________

2.) Online Songs

Key: A

Tuning: Standard EADGBe

Chords used:
A -   x02220
Bm -  x24432
D -   xx0232
E -   022100
F#m - 244222


Intro:
A
  Josie
Bm         D
  You're my source
   E
of most frustration
A       Bm
  Forget when I
D            E
  Don't meet expectations
A
Everything you
Bm
wished came true
D
In the end we
E
all blamed you
A
Even though as
Bm
they all know
D
You weren't the only
E(hold)
one, two, three, four...


Interlude: A--Bm--D--E-- x2

Guitar 2:
e|---------------------|------------------|
B|---------------------|------------------|
G|---------------------|------------7-7-7-|
D|---------------------|------------7-7-7-|
A|---4---7-4---5---5-4-|---4---7-4--7-7-7-|
E|-5---5-----5---5-----|-5---5------0-0-0-|
           x3


Verse 1:
A
Why do you still
         D
keep it around
When you know it
          F#m
brings me down
           E    A
I'm hating everything
      A
And I know that
                D
you dated other guys
                   F#m
But I gotta wonder why
               E       A
You'd leave it out for me

(Shit)


(Repeat Interlude)


Verse 2:
A
Why am I still
         D
hanging around
When I know it
          F#m
brings me down
           E    A
I'm hating everything
        A
And you are getting
                  D
rides home in his car
And making out in
          F#m
his front yard
           E    A
I'm hating everything


Chorus:
             D
Please don't remind me
                A
Put your past behind me
It shines so bright
   E
it blinds me
I wish that
           D
this would end
         D
And I am not fine
Last night I
        A
saw you online
Your screen name
        E
used to be mine
Why can't we
        D
just pretend


Verse 3:
A                          D
And if we can have another day
                         F#m
I've got so much left to say
             E    A
I'd tell you everything
         A
And I'll laugh when I
                D
think about the past
                     F#m
When I see you after class
              E    A
You're hating everything


(Repeat Chorus twice)


Bridge:
And she said
F#m         D
Na na na na na
         A
na na na na
         E
na na na na
(I just forgot
you were there)
F#m         D
Na na na na na
         A
na na na na
         E
na na na na
(I just forgot
you were there)
F#m         D
Na na na na na
         A
na na na na
         E
na na na na
(I just forgot
you were there)
F#m         D
Na na na na na
         A
na na na na
         E
na na na na


(Repeat chorus twice)


Outro:
And she said
F#m         D(hold)
Na na na na na

______________________________________________

3.) First Date

Key: C

Tuning: Standard EADGBe

Chords used:
C -   x32010
Dm -  xx0231
Am -  x02210
F -   133211
G -   320003
Em -  022000
G/B - x2x003


Intro: C--Dm--F--G-- x2

Guitar 2:
e--0----------------------------------|
B---11111111-31111111-311111111-31110-|
G-------------------------------------|
D-------------------------------------|x2
A-------------------------------------|
E-------------------------------------|

e-------------------------------------|
B-------------------------------------|
G---------------5---------------------|
D---------------5----Let Ring---------|
A---------------3---------------------|
E-------------------------------------|


Verse 1:
C
  In the car I just can't wait
G
  to pick you up on
    F
our very first date
C
  Is it cool if I hold your hand?
G                  F
  Is it wrong if I think
it's lame to dance?
C
  Do you like my stupid hair?
G
  Would you guess that I
F
didn't know what to wear?
C
  I'm too scared of
what you think
G
  You make me nervous
     F
so I really can't eat


Chorus:
C         G/B        Am
  Let's go don't wait this
        F      G
night's almost over
C       G/B        Am
  Honest let's make this
      F       G
night last forever
C        G/B      Am
  Forever and ever let's
          F       G
make this last forever
C        G/B      Am
  Forever and ever let's
          F       G
make this last forever


(Repeat Intro)


Verse 2:

  When you smile

I melt inside

I'm not worthy for a

minute of your time

I really wish it was

only me and you

I'm jealous of everybody

in the room

Please don't look at

me with those eyes

Please don't hint that

you're capable of lies

I dread the thought of

our very first kiss

A target that i'm

probably gonna miss


Interlude: C--Em--F--G-- x6

Guitar 2: Wil lenter at 3rd time
e|------------------------------------|
B|------------------------------------|
G|-5-5-9-9-5--9-9-5--10-10-5--7-7-7-7-|
D|-x-x-x-x-x--x-x-x---x--x-x--x-x-x-x-| x4
A|-3-3-7-7-3--7-7-3---8--8-3--5-5-5-5-|
E|------------------------------------|


(Repeat Chorus)


Outro:
C        G/B      Am
  Forever and ever let's
          F       G
make this last forever
C        G/B      Am
  Forever and ever let's
          F       G   C(hold)
make this last forever

____________________________________________

4.) Happy Holidays You Bastard

Key: B

Tuning: Standard EADGBe

Chords used:
B -   x24442
F# -  244322
G#m - 466444
E -   022100


Verse 1:
               B
It's Christmas Eve and I've
             F#
only wrapped two fucking presents
          B
Christmas Eve and I've only
        F#
wrapped two fucking presents
      Abm
And I hate hate hate your guts
  E
I hate hate hate your guts
    B          F#           E
And I'll never talk to you again
Unless your dad will suck me off
B          F#           E
I'll never talk to you again
Unless your mom will touch my cock
B          F#           E
I'll never talk to you again
Ejaculate into a sock
B          F#           E
I'll never talk to you again
           F#
I'll never talk to you again


Verse 2:
           B
It's Labor day and my Grandpa
         F#
just ate seven fucking hotdogs
      B
Labor day and my grandpa
         F#
just ate seven fucking hotdogs
       Abm
And he shit shit shits his pants
     E
He's always fucking
shitting his pants
    B          F#           E
And I'll never talk to you again
Unless your dad will suck me off
B          F#           E
I'll never talk to you again
Unless your mom will touch my cock
B          F#           E
I'll never talk to you again
Ejaculate into a sock
B          F#           E
I'll never talk to you again
           F#           B   B(hold)
I'll never talk to you again

____________________________________________

5.) Story Of A Lonely Guy

Key: A

Tuning: Standard EADGBe

Chords used:
A -    x02220
Bm -   x24432
A/C# - x476xx or x4222x
C#m -  x46654
D -    xx0232
F#m -  244222
E -    022100
E/G# - 476xxx


Intro: A--E--F#m--D-- x2

Tom:
e|-0--5--7--0--5--7--5-|
B|---------------------|
G|---------------------|
D|---------------------| x2
A|---------------------|
E|---------------------|

Mark:
      A         E        F#m           D
G|-----9---|-----9---|-----6---|-----2---4---6---|
D|-7-7---7-|-9-9---9-|-4-4---4-|-0-0---0---0---0-|
A|---------|---------|---------|-----------------| x2
E|---------|---------|---------|-----------------|
      x2        x2       x2


Verse 1:
A         Bm
  Push it out
        C#m
fake a smile
        D
Avert disaster
        A
just in time
         Bm
I need a drink
           C#m
Cause in a while
          D
Worthless answers from
           A
friends of mine
             Bm
It's dumb to ask
          C#m
cool to ignore
         D
girls possess me but
              A
they're never mine
          Bm
I made my entrance
        C#m
avoided hazards
           D
Checked my engine

I fell behind


Refrain 1:
A/C#  D
da da da da
A     E
da da da da da
I fell behind
A/C#  D     A
da da da da da
   E
da da da da


Chorus 1:
A              E
  She makes me feel like
     F#m        D
it's raining outside
A               E
  And when the storm's gone
        F#m       D
I'm all torn up inside
A            E         F#m
  I'm always nervous on days
          D
like this like the prom
A            E
  I get too scared to move
      F#m           D
cause I'm a fucking boy


(Repeat Intro)


Verse 2:
A          Bm         C#m
  Remember when I was in
             D
The grocery store
         A
now's my time
         Bm
Lost the words
         C#m
lost the nerve
         D
Lost the girl
         A
left the line
        Bm
I would wish
        C#m
upon a star
          D
But that star
           A
it doesn't shine
           Bm
So read my book
              C#m
with a boring ending
         D
A short story
of a lonely guy


Refrain 2:
A/C#  D
da da da da
A     E
da da da da da
Who fell behind
A/C#  D     A
da da da da da
   E
da da da da


(Repeat and Chorus 1)


Interlude: A/C#--Bm--E-- x2, A/C#--D--E--A-E/G#-A/C#--Bm--


Bridge:
A     E     F#m
da da da da da
   D
da da da da
(Repeat)


Chorus 2:
A              E
  She makes me feel like
     F#m        D
it's raining outside
A               E
  And when the storm's gone
        F#m       D
I'm all torn up inside
A            E         F#m
  I'm always nervous on days
          D
like this like the prom
A            E
  I get too scared to move
      F#m
cause I'm still just a
 D               A(hold)
stupid worthless boy!!!

______________________________________

6.) The Rock Show

Key: A

Tuning: Standard EADGBe

Chords used:
A -   x02220
E -   022100
F#m - 244222
D -   xx0232
C#m - x46654


Intro: A--D--E-- x2, A

Tom:
e|-------------------------|
B|-------------------------|
G|-------------------------|
D|-------------------------| x4
A|-------7-7-7-5-5-5-4-4-4-|
E|-5-5-5-------------------|


verse 1:
A
 Hanging out behind the
club at the weekends
D
 Acting stupid getting
E
drunk with my best friends
A
 I couldn
Добавлено: 04.10.2013
Другие материалы по этой песне:
  • Аккорды и текст

Страница создана 08.07.2013
http://primanota.ru/blink-182/take-off-your-pants-and-jacket-chords.htm
Привет, Гость.
Предлагаем пройти революционный курс по гитаре.
Подарок от PrimaNota.Ru, забирай!