PrimaNota.ru - самый крупный в мире бесплатный архив песенных текстов, аккордов, табулатур и нот


Blink 182 - Rich Lips - аккорды и текст, таба, видео

Регистрация Запомнить меня
Войти через:  Facebook Google Twitter Vk Yandex Mail.ru

Blink 182 - Rich Lips - аккорды и текст, таба, видео

Печатать
Просмотров: 148
Rich Lips
Blink 182
submitted by nick h
blink 182
rich lips
dude ranch

intro and pre chorus:

--------------------------------------
--------------------------------------
---------------------------------------
7-----------7------------7------------9---
4-(16-times)5-(16-times)-0-(16-times)-7-(16-times)-----
----------------------------------------


verse:

---------------------------------------
--------------------------------------
2------------7------------9-------------
2------------7------------9--------------
0-(16-times)-5-(16 times)-7-(16 times)-----
---------------------------------------

chorus:

----------------------------
-----------------------------
---------------------------2----
4------------12------------2-----------2-------------------
4------------12------------0-(11 times)2-------------------
2-(11-times)-10-(11-times)-------------0-(11-times)---------

last chord of chorus on last time:

-----------------------------
---------------------------
9--------------------------
9---------------------------
7-(let ring)--------------------------
--------------------------

interlude:
--------------------------------------
----------------------------------------
---------------------------------------
7----------7---------9--------------------
4-(8 times)5-(8times)7-(8 times)----------
-----------------------------------------

breakdown:

---------------------------------------
--------------------------------------
2----------7-6------------7-7-7-7-7-7---------
2----------7-6-2-2-2-2-2--7-7-7-7-7-7---------------
0-(8 times)5-4-2-2-2-2-2--5-5-5-5-5-5-----------
---------------0-0-0-0-0----------------------

end of breakdown:

----------------------------------
----------------------------------
14-----------------------------------
-x----------------------------------
12-(do this really fast and really long)----
-----------------------------------

that is pretty much it. if there are any questions email me at 
nhalasan@hotmail.com   later

-
     
Добавлено: 08.12.2013
Другие материалы по этой песне:
  • Аккорды и текст

Страница создана 13.03.2012
http://primanota.ru/blink-182/rich-lips-chords.htm
Привет, Гость.
Предлагаем пройти революционный курс по гитаре.
Подарок от PrimaNota.Ru, забирай!