PrimaNota.ru - самый крупный в мире бесплатный архив песенных текстов, аккордов, табулатур и нот


Blink 182 - Red Skies - аккорды и текст, таба, видео

Регистрация Запомнить меня
Войти через:  Facebook Google Twitter Vk Yandex Mail.ru

Blink 182 - Red Skies - аккорды и текст, таба, видео

Печатать
Просмотров: 178
Red Skies
Blink 182
		   Intro: 2x clean then distortion 3x
| ----------------------------------------- |
| ----------------------------------------- |
| ----------------------------------------- |
| ---2---1---2---2-4-----2---1---2---2-2-1- |
| -------------------2--------------------- |
| -0---0---0---0-------0---0---0---0------- |

Verse : x2
| -------------------------------- |
| -------------------------------- |
| --9999--------9999-------------- |
| --9999--7777--9999--99--77--55-- |
| --7777--7777--7777--99--77--55-- |
| --------5555--------77--55--33-- |

Chorus : x4
| ---------------------------------------- |
| ---------------------------------------- |
| -----------------------------55555555--- |
| --55555555-99999999-77777777-55555555--- |
| --55555555-99999999-77777777-33333333--- |
| --33333333-77777777-55555555------------ |


Intro: 2x clean then distortion 3x
| ----------------------------------------- |
| ----------------------------------------- |
| ----------------------------------------- |
| ---2---1---2---2-4-----2---1---2---2-2-1- |
| -------------------2--------------------- |
| -0---0---0---0-------0---0---0---0------- |

Verse : x2
| -------------------------------- |
| -------------------------------- |
| --9999--------9999-------------- |
| --9999--7777--9999--99--77--55-- |
| --7777--7777--7777--99--77--55-- |
| --------5555--------77--55--33-- |

Chorus : x4
| ---------------------------------------- |
| ---------------------------------------- |
| -----------------------------55555555--- |
| --55555555-99999999-77777777-55555555--- |
| --55555555-99999999-77777777-33333333--- |
| --33333333-77777777-55555555------------ |

Interlude : x4
| ------------------------------------- |
| ------------------------------------- |
| --99999999--------------------------- |
| --99999999--5--7--99999999--7--5--4-- |
| --77777777--5--7--99999999--7--5--4-- |
| ------------3--5--77777777--5--3--2-- |

Verse : x3 palm mute
| -------------------------------------------- |
| -------------------------------------------- |
| --99999999------------99999999-------------- |
| --99999999--77777777--99999999--99--77--55-- |
| --77777777--77777777--77777777--99--77--55-- |
| ------------55555555------------77--55--33-- |

Chorus : x4
| ---------------------------------------- |
| ---------------------------------------- |
| -----------------------------55555555--- |
| --55555555-99999999-77777777-55555555--- |
| --55555555-99999999-77777777-33333333--- |
| --33333333-77777777-55555555------------ |

Chorus : x4
| ---------------------------------------- |
| ---------------------------------------- |
| -----------------------------55555555--- |
| --55555555-99999999-77777777-55555555--- |
| --55555555-99999999-77777777-33333333--- |
| --33333333-77777777-55555555------------ |     
Добавлено: 11.08.2013
Другие материалы по этой песне:
  • Аккорды и текст

Страница создана 27.02.2012
http://primanota.ru/blink-182/red-skies-chords.htm
Привет, Гость.
Предлагаем пройти революционный курс по гитаре.
Подарок от PrimaNota.Ru, забирай!