PrimaNota.ru - самый крупный в мире бесплатный архив песенных текстов, аккордов, табулатур и нот


Blink 182 - Dysentry Gary - таба, видео

Регистрация Запомнить меня
Войти через:  Facebook Google Twitter Vk Yandex Mail.ru

Blink 182 - Dysentry Gary - таба, видео

Печатать
Просмотров: 119
Artist:Blink182
Album:Enema Of The State
Song:Dysentry Gary
Tabbed by: pid_182@yahoo.co.uk (Tom Piddock)

Note,= is palm mute

Intro:

E-----------------------------------
B-----------------------------------
G-----------------------------------
D--444000555444000----444-----------
A------------------------0000444445-
E------------------333--------------

Verse:

E----------    -----------------
B----------    -----------------
G--7------7    -----------------
D--7-7777-7    5-5555-5-7-7777-7
A--5-7777-5    5-5555-5-7-7777-7
E----5555-- x2 3-3333-3-5-5555-5
     ====        ====     ====

Pre-Chorus:

E------------------------------------------
B------------------------------------------
G------------------------------------------
D--0-0-0-0-0-0-4-4-2-20------------4-4-2-2-
A------------------------------------------
E--------------------3-3-3-3-5-5-----------

Chorus,strum away with these:

E----------
B----------
G----------
D--12--5--7
A--12--5--7
E--10--3--5

'Life just sucks....'
E--15-14-----
B--------15--
G-----------0
D------------
A------------
E------------

Pre-Chorus:
E--------------
B--------------
G--------------
D--0-0h2-0--2--
A-------------0
E------------3- 

and finish the song with:

E-------------------
B-------------------
G-------------------
D--444000555444----0
A------------------5
E--------------3555-

cool song indeed.

=====

     
Добавлено: 05.09.2013
Другие материалы по этой песне:
  • Аккорды и текст

Страница создана 16.08.2013
http://primanota.ru/blink-182/dysentry-gary-chords.htm
Привет, Гость.
Предлагаем пройти революционный курс по гитаре.
Подарок от PrimaNota.Ru, забирай!