PrimaNota.ru - самый крупный в мире бесплатный архив песенных текстов, аккордов, табулатур и нот


Blink 182 - Damnit - таба, видео

Регистрация Запомнить меня
Войти через:  Facebook Google Twitter Vk Yandex Mail.ru

Blink 182 - Damnit - таба, видео

Печатать
Просмотров: 991
Уроки эстрадного вокала в Санкт-Петербурге
MAIN RIFF:(4x)
E|----------------------------------------------------------------------|
B|----------------------------------------------------------------------|
G|----------------------------------------------------------------------|
D|------------0-0-2------------0-0-2--------------0-0-2-----------2-2-0-|
A|---3-3----------------------------------0-0---------------------------|
E|----------------------3-3----------------------------------1-1--------|

VERSE:(2x)
E|----------------------------------------------------------------------|
B|----------------------------------------------------------------------|
G|---5--xxxxxx----------------------------------------------------------|
D|---5--xxxxxx------5--xxxxxx-------7--xxxxxx------3--xxxxxx------------|
A|---3--xxxxxx------5--xxxxxx-------7--xxxxxx------3--xxxxxx------------|
E|------------------3--xxxxxx-------5--xxxxxx------1--xxxxxx------------|

(1)  It's alright        to tell me     what you think    about me
(2)  I won't try         to argue         or hold it        against you

VERSE: (2x)
E|----------------------------------------------------------------------|
B|----------------------------------------------------------------------|
G|---5--5-5-5-----------------------------------------------------------|
D|---5--5-5-5-----------5--5-5-5-----------7--7-7-7------------3--3-3-3-|
A|---3--3-3-3-----------5--5-5-5-----------7--7-7-7------------3--3-3-3-|
E|----------------------3--3-3-3-----------5--5-5-5------------1--1-1-1-|
(3) I know that    you're leaving  you must have   your reasons
(4) The season     is calling       your pictures    are falling down

MAIN RIFF: (2x)
E|----------------------------------------------------------------------|
B|----------------------------------------------------------------------|
G|----------------------------------------------------------------------|
D|---------0-2---------0-0-2---------------0-0-2---------2-2-0---------------|
A|---3-3-----------------------------0-0--------------------------------|
E|-------------------3-3-----------------------------1-1----------------|

THE NEXT 2 VERSES GO JUST LIKE THE FIRST ONE.

VERSE 2:
(1) The steps that     I retrace      a sad look      on your face
(2) The timing       and structure   did you hear
(3) A day late        a buck short    I'm writing     the report
(4) I'm losing          and failing     when I move    I'm flailing now

CHORUS:
E|----------------------------------------------------------------------|
B|----------------------------------------------------------------------|
G|----5-----------------------------------------------------------------|
D|----5-----------------------------------5------------------------7----|
A|----3-----------------------------------5------------------------7----|
E|----------------------------------------3------------------------5----|
And it will happen once again      you'll turn to a friend

E|----------------------------------------------------------------------|
B|----------------------------------------------------------------------|
G|------------------------------------------------------------------5---|
D|----------------------------------3-------------------------------5---|
A|----------------------------------3-------------------------------3---|
E|----------------------------------1-----------------------------------|
Someone that understands    sees through the master plan

E|----------------------------------------------------------------------|
B|----------------------------------------------------------------------|
G|----------------------------------------------------------------------|
Добавлено: 06.06.2012
Другие материалы по этой песне:
  • Аккорды и текст

Страница создана 06.06.2012
http://primanota.ru/blink-182/damnit-chords.htm
Привет, Гость.
Предлагаем пройти революционный курс по гитаре.
Подарок от PrimaNota.Ru, забирай!