PrimaNota.ru - самый крупный в мире бесплатный архив песенных текстов, аккордов, табулатур и нот


Blink 182 - Carousel Live - таба, бас-таба, видео

Регистрация Запомнить меня
Войти через:  Facebook Google Twitter Vk Yandex Mail.ru

Blink 182 - Carousel Live - таба, бас-таба, видео

Печатать
Просмотров: 236
Carousel Live
Blink 182
Tabbed By Ben

OK all of these tabs are pretty good except Tom fingers this song differently live so 
it's easier to play while singing. So here's the tab for Carousel when I saw Blink 
play live at Sydney Big Day Out in 2000... you can download this video so if you don't 
believe me watch it and you'll see. Now I realize that the Chesire Cat version has a cool 
intro but if you look at version 11 it's got it and it's almost perfect.

INTRO: (played on bass but here's a guitar version)
e----------------------------------------------------------
B----------------------------------------------------------
G----------------------------------------------------------
D----4-4-5-7-5-4-------------------------------------------
A--5-------------5----4-4-5-7-5-4------7-7-9-10-10-9-7-----
E-------------------5-------------5--7---------------------
                                
                                D-----------------REPEAT
                                A----5-5---5---5--INTRO
                                E--3-----3---3----X 2

After the intro second time through the guitar comes in
e----------------------------------------------------------
B----------------------------------------------------------
G----------------------------------------------------------
D--7-7-7-7-7-----------------------------------------------
A--5-5-5-5-5--7-7-7-7-7--9-9-9-9-9--5-5-5-5-5---(X4)-------
E-------------5-5-5-5-5--7-7-7-7-7--3-3-3-3-3--------------

e----------------------------------------------------------
B----------------------------------------------------------
G--7-7-7-7-7-----------------------------------------------
D--7-7-7-7-7--7-7-7-7-7--9-9-9-9-9--5-5-5-5-5--------------
A--5-5-5-5-5--7-7-7-7-7--9-9-9-9-9--5-5-5-5-5---(X4)-------
E-------------5-5-5-5-5--7-7-7-7-7--3-3-3-3-3--------------

Cool little guitar part before verse... Everybody's is different so if you just mess 
around with some single strings you can play it your own way... I'm not going to tab 
it because it would probably be wrong and it's easier to play your own way. Version 
12's is pretty good.

VERSE/CHORUS: It's pretty much the same chords as the ones above but fingered differently 
so when Tom sings he can finger these a little easier now it's not that big of a deal but 
if you want to sing this with your band you might find this is easier than what everybody
else has.

e----------------------------------------------------------
B----------------------------------------------------------
G--7-7-7-7-7-----------------------------------------------
D--7-7-7-7-7--2-2-2-2-2--4-4-4-4-4--5-5-5-5-5--------------
A--5-5-5-5-5--2-2-2-2-2--4-4-4-4-4--5-5-5-5-5--------------
E-------------0-0-0-0-0--0-0-0-0-0--3-3-3-3-3--------------
Play as many times as needed

INTERLUDE:(Fast little guitar part near the end)
e----------------------------------------------------------
B----------------------------------------------------------
G--7-------------------------3-----------------------------
D--7-4-5-7-5-4--7------------3-1-2-4-2-1--5----------------
A--5------------7-4-5-7-5-4--1------------5-2-3-5-3-2-(X4)-
E---------------5-------------------------3----------------

That's about it if listen to the live song and play along with that. And if you still 
don't believe me about the chords watch the live show seriously. You'll see what I'm 
talking about... it's also pretty cool too.
Добавлено: 07.07.2012
Другие материалы по этой песне:

Страница создана 16.03.2012
http://primanota.ru/blink-182/carousel-live-chords.htm
Привет, Гость.
Предлагаем пройти революционный курс по гитаре.
Подарок от PrimaNota.Ru, забирай!