PrimaNota.ru - самый крупный в мире бесплатный архив песенных текстов, аккордов, табулатур и нот


Blink 182 - Carousel Buddha Version - таба, видео

Регистрация Запомнить меня
Войти через:  Facebook Google Twitter Vk Yandex Mail.ru

Blink 182 - Carousel Buddha Version - таба, видео

Печатать
Просмотров: 119
tabbed by mark kram
band:blink 182
song:carousel
album:buddha
label:kung fu
tuning:standard e.a.d.g.b.e.
over dubs found at bottom
x over dub 1 starts here                         over dub 1 ends here x
|--------|--------|--------|--------|--------|--------|--------|--------|
|--------|--------|--------|--------|--------|--------|--------|--------|
|--------|--------|--------|--------|--------|--------|--------|--------|
|-445754-|--------|-2245424|--------|-445754-|--------|-2245424|--------|
|5------5|-445754-|2-------|--5--5-5|5------5|-445754-|2-------|--5--5-5|
|--------|5------5|--------|33-33-3-|--------|5------5|--------|33-33-3-|

|--------|--------|--------|--------|-------|---------|--------|--------|
|--------|--------|--------|--------|-------|---------|--------|--------|
|--------|--------|--------|--------|-------|---------|--------|--------|
|45555555|55555554|45555555|77554444|4455555|555555555|44555555|57547544|
|--------|--------|--------|--------|-------|---------|--------|--------|
|--------|--------|--------|--------|-------|---------|--------|--------|

|--------|--------|--------|--------|--------|--------|--------|--------|
|--------|--------|--------|--------|--------|--------|--------|--------|
|--------|--------|--------|--------|--------|--------|--------|--------|
|44444452|22222222|44444457|77554422|44444452|22222222|00402420|22445420|
|--------|--------|--------|--------|--------|--------|--------|--------|
|--------|--------|--------|--------|--------|--------|--------|--------|
 

|--------|--------|--------|--------|--------|--------|--------|--------|
|--------|--------|--------|--------|--------|--------|--------|--------|
|77777777|22222222|44444444|--------|77777777|22222222|44444444|--------|
|77777777|22222222|44444444|55555555|77777777|22222222|44444444|55555555|
|55555555|00000000|22222222|55555555|55555555|00000000|22222222|55555555|
|--------|--------|--------|33333333|--------|--------|--------|33333333|

x over dub 2 starts here                         over dub 2 ends here x
|--------|--------|--------|--------|--------|--------|--------|--------|
|--------|--------|--------|--------|--------|--------|--------|--------|
|77777777|22222222|44444444|--------|77777777|22222222|44444444|--------|
|77777777|22222222|44444444|55555555|77777777|22222222|44444444|55555555|
|55555555|00000000|22222222|55555555|55555555|00000000|22222222|55555555|
|--------|--------|--------|33333333|--------|--------|--------|33333333|

|--------|--------|--------|--------|--------|--------|--------|--------|
|--------|--------|--------|--------|--------|--------|--------|--------|
|77777777|99999999|22222222|--------|77777777|99999999|22222222|--------|
|77777777|99999999|22222222|55555555|77777777|99999999|22222222|55555555|
|55555555|77777777|00000000|55555555|55555555|77777777|00000000|55555555|
|--------|--------|--------|33333333|--------|--------|--------|33333333|

|--------|--------|--------|--------|--------|--------|--------|--------|
|--------|--------|--------|--------|--------|--------|--------|--------|
|77777777|99999999|22222222|--------|77777777|99999999|22222222|--------|
|77777777|99999999|22222222|55555555|77777777|99999999|22222222|55555555|
|55555555|77777777|00000000|55555555|55555555|77777777|00000000|55555555|
|--------|--------|--------|33333333|--------|--------|--------|33333333|


|--------|--------|--------|--------|--------|--------|--------|--------|
|--------|--------|--------|--------|--------|--------|--------|--------|
|--------|--------|--------|--------|--------|--------|--------|--------|
|44444452|22222222|44444457|77554422|44444452|22222222|00402420|22445420|
|--------|--------|--------|--------|--------|--------|--------|--------|
|--------|--------|--------|--------|--------|--------|--------|--------|
                                         over dub 3 starts here x
|--------|--------|--------|--------|--------|--------|--------|--------|
|--------|--------|--------|--------|--------|--------|--------|--------|
|77777777|22222222|44444444|--------|77777777|22222222|44444444|--------|
|77777777|22222222|44444444|55555555|77777777|22222222|44444444|55555555|
|55555555|00000000|22222222|55555555|55555555|00000000|22222222|55555555|
|--------|--------|--------|33333333|--------|--------|--------|33333333|

         x over dub 3 ends here
|--------|--------|--------|--------|--------|--------|--------|--------|
|--------|--------|--------|--------|--------|--------|--------|--------|
|77777777|22222222|44444444|--------|77777777|22222222|44444444|--------|
|77777777|22222222|44444444|55555555|77777777|22222222|44444444|55555555|
|55555555|00000000|22222222|55555555|55555555|00000000|22222222|55555555|
|--------|--------|--------|33333333|--------|--------|--------|33333333|
x over dub 4 starts here
|--------|--------|--------|--------|--------|--------|--------|--------|
|--------|--------|--------|--------|--------|--------|--------|--------|
|--------|--------|--------|--------|--------|--------|--------|--------|
|--45754-|--------|--------|--------|--45754-|--------|--------|--------|
|5------5|--45754-|--67976-|--23532-|5------5|--45754-|--67976-|--23532-|
|--------|5------5|7-------|3------3|--------|5------5|7-------|3------3|
                                                    over dub ends here x
|--------|--------|--------|--------|--------|--------|--------|--------|
|--------|--------|--------|--------|--------|--------|--------|--------|
|--------|--------|--------|--------|--------|--------|--------|--------|
|--45754-|--------|--------|--------|--45754-|--------|--------|--------|
|5------5|--45754-|--67976-|--23532-|5------5|--45754-|--67976-|--23532-|
|--------|5------5|7-------|3------3|--------|5------5|7-------|3------3|  

|--------|--------|--------|--------|--------|--------|--------|--------|
|--------|--------|--------|--------|--------|--------|--------|--------|
|77777777|99999999|22222222|--------|77777777|99999999|22222222|--------|
|77777777|99999999|22222222|55555555|77777777|99999999|22222222|55555555|
|55555555|77777777|00000000|55555555|55555555|77777777|00000000|55555555|
|--------|--------|--------|33333333|--------|--------|--------|33333333|

|--------|--------|--------|--------|--------|--------|--------|--------|
|--------|--------|--------|--------|--------|--------|--------|--------|
|77777777|99999999|22222222|--------|77777777|99999999|22222222|--------|
|77777777|99999999|22222222|55555555|77777777|99999999|22222222|55555555|
|55555555|77777777|00000000|55555555|55555555|77777777|00000000|55555555|
|--------|--------|--------|33333333|--------|--------|--------|33333333|

|55|
|77|
|77|
|77|
|55|
|55|

over dub 1 x
|--------|--------|--------|--------|--------|--------|--------|--------|
|--------|--------|--------|--------|--------|--------|--------|--------|
|--------|--------|--------|--------|--------|--------|--------|--------|
|--------|--------|--------|5-------|--------|--------|--------|5-------|
|5-------|0-------|2-------|--------|5-------|0-------|2-------|--------|
|--------|--------|--------|--------|--------|--------|--------|--------|

 
over dub 2 x
|--------|--------|--------|--------|--------|--------|--------|--------|
|--------|--------|--------|--------|--------|--------|--------|--------|
|70070070|--------|--------|--------|70070070|--------|--------|--------|
|--------|70070070|90090090|50050550|--------|70070070|90090090|50050550|
|--------|--------|--------|--------|--------|--------|--------|--------|
|--------|--------|--------|--------|--------|--------|--------|--------|
over dub 3 x
|3-3-3-3-|-----(3)|
|3-3-3-3-|-----(3)|
|4-4-4-4-|-----(4)|
|5-5-5-5-|-----(5)|
|5-5-5-5-|-----(5)|
|3-3-3-3-|-----(3)|

over dub 4 x
|--------|--------|--------|--------|--------|--------|--------|--------|
|--------|--------|--------|--------|--------|--------|--------|--------|
|7-------|2-------|4-------|--------|7-------|2-------|4-------|--------|
|7-------|2-------|4-------|5-------|7-------|2-------|4-------|5-------|
|5-------|0-------|2-------|5-------|5-------|0-------|2-------|5-------|
|--------|--------|--------|3-------|--------|--------|--------|3-------|

|--------|--------|--------|--------|--------|--------|--------|--------|
|--------|--------|--------|--------|--------|--------|--------|--------|
|7-------|2-------|4-------|--------|7-------|2-------|4-------|--------|
|7-------|2-------|4-------|5-------|7-------|2-------|4-------|5-------|
|5-------|0-------|2-------|5-------|5-------|0-------|2-------|5-------|
|--------|--------|--------|3-------|--------|--------|--------|3-------|


     
Добавлено: 06.06.2013
Другие материалы по этой песне:
  • Аккорды и текст

Страница создана 06.06.2013
http://primanota.ru/blink-182/carousel-buddha-version-chords.htm
Привет, Гость.
Предлагаем пройти революционный курс по гитаре.
Подарок от PrimaNota.Ru, забирай!