PrimaNota.ru - самый крупный в мире бесплатный архив песенных текстов, аккордов, табулатур и нот


Blink 182 - Anthem Pt.2 - текст песни, таба, бас-таба, видео

Регистрация Запомнить меня
Войти через:  Facebook Google Twitter Vk Yandex Mail.ru

Blink 182 - Anthem Pt.2 - текст песни, таба, бас-таба, видео

Печатать
Просмотров: 133


this is a really cool song to play

h=hammer on  Pa=palm mute

Intro 1
E--3-3-1-1-0-0-1-1--
B---1-1-1-1-1-1-1-1-
G-------------------
D-------------------(4x)
A-------------------
E-------------------

Intro 2
E-----------------------------------------------
B-----------------------------------------------
G-----------------------------------------------
D-------2-h3-2-----2-h3-2-----2-h3-2-----0-----0
A----3-3-------3-3--------3-3--------3-3---3-3--
E-----------------------------------------------
(4x)

the fourth time you do intro 2 do this

E-----------------------------------------------
B-----------------------------------------------
G-----------------------------------------------
D-------2-h3-2-----2-h3-2-----2-h3-2-5555-5555--
A----3-3-------3-3--------3-3--------3333-3333--
E-----------------------------------------------

intro 3
E--------------------------------------------
B--------------------------------------------
G--------------------------------------------
D----99-1010-9--555--7777--------------------(4x)
A----77-8-8--7--333--5555--------------------
E--------------------------------------------

the fourth time you do intro 3 do this

E--------------------------------------------
B--------------------------------------------
G--------------------------------------------
D----99-1010-9----55555555-------------------
A----77-8-8--7----33333333-------------------
E--------------------------------------------
let ring out

verse 1
after the bass part is done do this

E--------------------------------------------
B--------------------------------------------pa
G--------------------------------------------
D--55555555555--22222222-33333333------------(2x)
A--33333333333--00000000-11111111------------
E--------------------------------------------


after your done with that do this

E--------------------------------------------
B--------------------------------------------
G--------------------------------------------
D--------------------------------------------
A----7------5------3-------------------------
E--5---5--3---3--1---------------------------
let ring out..

do verse one twice

chorus 1
E--------------------------------------------
B--------------------------------------------
G--------------------------------------------
D--------------------55555555----------------(4x)
A--22222222-33333333-33333333-55555555-------
E--00000000-11111111----------33333333-------

palm mute those chords the 2 last times you do chorus one


then after chorus one




 you do intro 3 one more time

verse 2

E--------------------------------------------
B--------------------------------------------
G--------------------------------------------
D--555555555555-22222222---------------------(2x)
A--333333333333-00000000-33333333------------
E------------------------11111111------------

then do this part one time..
E--------------------------------------------
B--------------------------------------------
G--------------------------------------------
D--------------------------------------------
A----7------5------3-------------------------
E--5---5--3---3--1---------------------------

do the same thing as you did in chorus one for chorus two..


then after the bass part and vocals do this


bridge
E--------------------------------------------
B--------------------------------------------
G--------------------------------------------
D--------------------------------------------
A--15----------------------------------------
E--15----------------------------------------
keep strumming this chord untill the next chorus

chorus 3
E--------------------------------------------
B--------------------------------------------
G--------------------------------------------
D--------------------55555555----------------
A--22222222-33333333-33333333-55555555-------
E--00000000-11111111----------33333333-------

exitlude
E----------------------------------------------
B----------------------------------------------
G----------------------------------------------
D-----2-h3-2-----2-h3-2-----2-h3-2----0----0---
A-3-3--------3-3--------3-3--------3-3--3-3----
E----------------------------------------------
(4x)

the last you do the exitlude do this
E----------------------------------------------
B----------------------------------------------
G----------------------------------------------
D-----2-h3-2-----2-h3-2-----2-h3-2-------------
A-3-3--------3-3--------3-3--------3-----------
E----------------------------------------------
let ring out.

if you don't get all of the sections in the song listen to the song to get it all down

tabed by brendenisamped






































Добавлено: 09.12.2013
Другие материалы по этой песне:
  • Аккорды и текст

Страница создана 07.06.2012
http://primanota.ru/blink-182/anthem-pt2-chords.htm
Привет, Гость.
Предлагаем пройти революционный курс по гитаре.
Подарок от PrimaNota.Ru, забирай!