PrimaNota.ru - самый крупный в мире бесплатный архив песенных текстов, аккордов, табулатур и нот


Blink 182 - Anthem Part II - таба, видео

Регистрация Запомнить меня
Войти через:  Facebook Google Twitter Vk Yandex Mail.ru

Blink 182 - Anthem Part II - таба, видео

Печатать
Просмотров: 166
Уроки эстрадного вокала в Санкт-Петербурге
Ok i know the band called blink 182 . By the way i have the tab book for Take off your pant and jaket so this is 100% correct         intro              *=palm mute
----------------------------------
-8---8---6---6---5---5---6--6--
---5---5---5---5---5---5---5--5
----------------------------------
-----------------------------------
-----------------------------------
Other intro
----------------------------------------------
---------------------------------------------
---------------------------------------------
----03---2----03----2----03---2---0----0
-33---33--33----33---33---33--33--33--
---------------------------------------------
Cool thing
---------------------
---------------------
---------------------
-3-3-3-3---3-3-3-3
-5-5-5-5---5-5-5-5
---------------------

----------------------------------------
---------------------------------------
-9-9-9-10-10-10-9-9-9-5-5-5-7-7-7
-*-*-*--*--*--*--*-*-*-*-*-*-*-*-*         twice
-7-7-7--8--8--8--7-7-7-3-3-3-5-5-5
----------------------------------------
Now do this
--------------------------------------------------
--------------------------------------------------
-9-9-9-10-10-10-9-9-9-5-5-5-5-5-5-5-5-5-5
-*-*-*--*-*-*-*-*-*-*-*-*-*-*-*-*-*-*-*-*
-7-7-7--8--8--8--7-7-7-3-3-3-3-3-3-3-3-3-3
--------------------------------------------------
Verse (we need) palm muted
-----------------------------------
-----------------------------------
-----------------------------------
-----------------------------------
-3-3-3-3-3-----------------------
-------------5-5-5-5-5-1-1-1-1-1
Chours
-----------------------------------------------------
-----------------------------------------------------
-3-3-3-3-3-3-3-3-3-3-3-3-3-3-3-3-5-5-5-5-5-5
-*-*-*-*-*-*-*-*-*-*-*-*-*-*-*-*-*-*-*-*-*-*
-5-5-5-5-5-5-5-5-5-5-5-5-5-5-5-5-7-7-7-7-7-7
-----------------------------------------------------
Chourse palm muted
------------------------------------------------
------------------------------------------------
-3-3-3-3-3-3-3-3-3-3-3-3-3-3-3-3-3-3-3-3
-*-*-*-*-*-*-*-*-*-*-*-*-*-*-*-*-*-*-*-*
-5-5-5-5-5-5-5-5-5-5-5-5-5-5-5-5-5-5-5-5
------------------------------------------------
The bridge (every thing)
---------
---------
-555555
-555555
---------
---------
This 100 % from tab book
Добавлено: 28.07.2012
Другие материалы по этой песне:

Страница создана 05.03.2012
http://primanota.ru/blink-182/anthem-part-ii-chords.htm
Привет, Гость.
Предлагаем пройти революционный курс по гитаре.
Подарок от PrimaNota.Ru, забирай!