PrimaNota.ru - самый крупный в мире бесплатный архив песенных текстов, аккордов, табулатур и нот


Blink 182 - All New Songs - аккорды и текст, видео

Регистрация Запомнить меня
Войти через:  Facebook Google Twitter Vk Yandex Mail.ru

Blink 182 - All New Songs - аккорды и текст, видео

Печатать
Просмотров: 85
All New Songs
Blink 182
Verse
E|-------------------------|
B|-------------------------|
G|--11/--9-9-9-9-----9--13-|
D|---x/--x-x-x-x-----x---x-|
A|---9/--7-7-7-7-----7--11-|
E|----------------0--------| X10
 
Chorus
E|------------------|
B|------------------|
G|--9-------------9-|
D|--x-------------x-|
A|--7-------------7-|
E|--0-------------0-|

Bridge
E|------------------------------------------------------------|
B|------------------------------------------------------------|
G|-9-9-9-9-----11-11-11-11-----13-13-13-13-----14-14-14-14----|
D|-x-x-x-x------x--x--x--x------x--x--x--x------x--x--x--x----|
A|-7-7-7-7-X2---9--9--9--9-X2--11-11-11-11-X2--12-12-12-12-X2-|
E|------------------------------------------------------------|

Chorus 2
1------------------------------------------------------
2------------------------------------------------------
3------------------------------------------------------
4---9--------------------------------------------------
5---7-X8----9-------11---------7-----------------------
6-----------7-X8----9-X8-------5-X8-------------------- X10

Verse
Chorus
Bridge
Verse
Chorus
Chorus
Pause
Chorus 2


Obvious
~=Hold

Intro
1------------------------------------------------
2------------------------------------------------
3--------6-6--6-6--6-----------------------------
4---6-6--7-7--7-7--7-----------------------------
5---4-4--4-4--4-4--4-----------------------------
6--------5-5--5-5--5----------------------------- X6
Verse
1----------------------------------------------------
2----------------------------------------------------
3---9~---6~---9~---6~--------------------------------
4---9~---6~---9~---7~--------------------------------
5---7~---4~---7~---4~--------------------------------
6------------------5~--------------------------------

Chorus
1---------------------------------------------------
2---------------------------------------------------
3---------------------------------------------------
4---2~---6-6-6-4-4-4-7-7-7-2-4----------------------
5---2~---6-6-6-4-4-4-7-7-7-2-4----------------------
6---0~---4-4-4-2-2-2-5-5-5-0-2---------------------- X2

Solo
1---------------------------------------------------
2---------------------------------------------------
3---------------------------------------------------
4---9-9-9---------6--10--9--10----------------------
5---7-7-7--7-7-7--4---8--7---8----------------------
6----------5-5-5------------------------------------ X6

End
1---------------------------------------------------
2---------------------------------------------------
3---9-9-9-9-9-9-9-9-----6-6-6-6-6-6-6-6-------------
4---9-9-9-9-9-9-9-9-----6-6-6-6-6-6-6-6-------------
5---7-7-7-7-7-7-7-7-X2--4-4-4-4-4-4-4-4-X2----------
6---------------------------------------------------
^^^^^^^^^^^^^^^^^^^^^^^
1-----------------------------------------------------------------
2-----------------------------------------------------------------
3---9-9-9-9-9-9-9-9-----6-6-6-6-6-6-6-6------6-6-6-6-6-6-6-6------
4---9-9-9-9-9-9-9-9-----6-6-6-6-6-6-6-6------7-7-7-7-7-7-7-7------
5---7-7-7-7-7-7-7-7-X2--4-4-4-4-4-4-4-4------4-4-4-4-4-4-4-4------
6--------------------------------------------5-5-5-5-5-5-5-5------ X4

The ones with the ^^^'s under them are all one part.
End On
1-----------------------------------------------------
2-----------------------------------------------------
3---6~------------------------------------------------
4---6~------------------------------------------------
5---4~------------------------------------------------
6-----------------------------------------------------
Intro
Verse
Chorus
Intro
Verse
Chorus
Chorus
Solo
End


I Miss You
/=Slide
x=Mute
Intro/Verse
1---------------------------------------------------
2---------------------------------------------------
3---4-/-8--8-8--4-/-8--8-8--4-/-8--8-8--4-/-8--8-8--
4---x-/-x--x-x--x-/-x--x-x--x-/-x--x-x--x-/-x--x-x--
5---2-/-6--6-6--2-/-6--6-6--2-/-6--6-6--2-/-6--6-6--
6--------------------------------------------------- X6

Chorus
1-----------------------------------------------------------------
2-----------------------------------------------------------------
3---4-4-4-4--6-6-6-6-8-8-8-8-11-11-11-11--4-4-4-4-4-4-4-4---------
4---x-x-x-x--x-x-x-x-x-x-x-x-x--x--x--x---x-x-x-x-x-x-x-x---------
5---2-2-2-2--4-4-4-4-6-6-6-6-9--9--9--9---2-2-2-2-2-2-2-2-X2------
6----------------------------------------------------------------- X2

Intro/Verse
Chorus
Intro/Verse
Chorus
Intro
Chorus
Chorus
Chorus
Chorus
Chorus
Chorus
Fades Out


Violence
=Pull String
G=Let String Down
Intro pt. 1
1---------------------------------------------------
2---------------------------------------------------
3---------------------------------------------------
4---------------------------------------------------
5---2-2-2-2G--2G--2G--2G-----------------------
6--------------------------------------------------- X4
Intro pt. 2
1---------------------------------------------------
2---------------------------------------------------
3---4-4-4-4-4---------------------------------------
4---x-x-x-x-x---------------------------------------
5---2-2-2-2-2--2-2-2-2G-2G-2G-2G---------------
6--------------------------------------------------- X2

Chorus
1----------------------------------------------------
2----------------------------------------------------
3---4-4-4-4-4-4-4-4-4-4-4-4--6-6-6-6-6-6-6-6-6-6-6-6-
4---x-x-x-x-x-x-x-x-x-x-x-x--x-x-x-x-x-x-x-x-x-x-x-x-
5---2-2-2-2-2-2-2-2-2-2-2-2--4-4-4-4-4-4-4-4-4-4-4-4-
6----------------------------------------------------
1----------------------------------------------------
2----------------------------------------------------
3----------------------------------------------------
4---6-6-6-6-6-6-6-6-6-6-6-6--8-8-8-8-8-8-8-8-8-8-8-8-
5---x-x-x-x-x-x-x-x-x-x-x-x--x-x-x-x-x-x-x-x-x-x-x-x-
6---4-4-4-4-4-4-4-4-4-4-4-4--6-6-6-6-6-6-6-6-6-6-6-6- X2
Both of these sets(in the chorus) are just 1 piece.
So You Play both 2 times.
Verse
1---------------------------------------------------
2---------------------------------------------------
3---------------------------------------------------
4---------------------------------------------------
5---------------------------------------------------
6---------------------------------------------------
Bridge
1---------------------------------------------------
2---------------------------------------------------
3---8~----------8~------------8~-----------8~-------
4---8~----------8~------------8~-----------8~-------
5---6~----------6~------------6~-----------6~-------
6---------------------------------------------------
End
1-----------------------------------------------------------------
2-----------------------------------------------------------------
3-----------------------------------------------------------------
4-----------------------------------------------------------------
5---2-2-2-1-------------------------------------------------------
6-----------5-5G-5G-5G-4-4-4-3G-3G-3G-2-2-2-1G-1G-0-------
Intro pt.1
Intro pt.2
Chorus
Verse
Chorus
Verse
Chorus
Bridge
Chorus
Chorus
Intro pt.1
End


Stockholm Syndrom
~=Rest
x=Mute

Intro
1-----------------------------------------------------------------
2-----------------------------------------------------------------
3----------------------------4---------------------------4--------
4---5-5-5-5-0-~--5-5-5-5-5-5----5-5-5-5-5-------------5-5---------
5---2-2-2-2-0-~--3-3-3-3--------2-2-2-2-2-----7-7-7-7-------------
6---0-0-0-0-0-~--0-0-0-0--------0-0-0-0-0-----5-5-5-5-------------

1-----------------7-----------------7-------------------7-----------------------
2-------------8---------------8-8-----------------8-8---------------------------
3---------------7-----------------7-------------------7-------------------------
4---5-5-5-5-5--------5-5-5-5------------5-5-5-5-5-----------------5-5-5-5-5-----
5---2-2-2-2-2--------3-3-3-3------------2-2-2-2-2--------7-7-7-7--3-3-3-3-2-----
6---0-0-0-0-0--------0-0-0-0------------0-0-0-0-0--------5-5-5-5----------0-----

Chorus
1--------------------------------------------------------------------
2--------------------------------------------------------------------
3--------------------------------------------------------------------
4---5-5-5-5-----5-5-5-5-----5-5-5-5----------------------------------
5---2-2-2-2-----3-3-3-3-----2-2-2-2-----7-7-7-7-----5-5-5-5----------
6---0-0-0-0-X4--0-0-0-0-X4--0-0-0-0-X4--5-5-5-5-X2--3-3-3-3-X2-------

Bridge pt. 1
1----------------------------------------------------------------
2----------------------------------------------------------------
3----------------------------------------------------------------
4---5-5-5-5-4-5-5-5-5-4--~---5-5-5-5-4-5-5-5-5-4-----------------
5---x-x-x-x-x-x-x-x-x-x--~---x-x-x-x-x-x-x-x-x-x-----------------
6---3-3-3-3-2-3-3-3-3-2--~---3-3-3-3-2-3-3-3-3-2-----------------

Bridge pt.2
1---------------------------------------------------------------
2---------------------------------------------------------------
3---------------------------------------------------------------
4---5--7--9--5-5-4--5-5-5-5-4-5-5-5-5-4-------------------------
5---x--x--x--x-x-x--x-x-x-x-x-x-x-x-x-x-------------------------
6---3--5--7--3-3-2--3-3-3-3-2-3-3-3-3-2------------------------- X2

Verse (Muted)
1---------------------------------------------------------------
2---------------------------------------------------------------
3---------------------------------------------------------------
4---5-5-5-5-----5-5-5-5-----5-5-5-5----2-2-2-2------------------
5---2-2-2-2-X4--3-3-3-3-X4--2-2-2-2-X4-0-0-0-0--X2--5-5-5-5-----
6---------------------------------------------------3-3-3-3-X2-- X4

Intro
Chorus
Bridge pt.1
Bridge pt.2
Verse
Chorus


Down

Intro
1-----------------------------------------------
2-----------------------------------------------
3---4-4-4--4-4-4--4-4--4-4-4--4-4-4--4-4--------
4---x-x-x--x-x-x--x-x--x-x-x--x-x-x--x-x--------
5---2-2-2--2-2-2--2-2--2-2-2--2-2-2--2-2--------
6----------------------------------------------- X8

Verse
1---------------------------------------------------
2---------------------------------------------------
3---4~----------------------------------------------
4---x~---6-6--8-8-----------------------------------
5---2~---x-x--x-x-----------------------------------
6--------4-4--6-6----------------------------------- X4
Chorus pt. 1
1---------------------------------------------------
2---------------------------------------------------
3---4-4-4-4-----------------------------------------
4---x-x-x-x------6-6-6-6-----8-8-8-8----------------
5---2-2-2-2-X4---x-x-x-x-----x-x-x-x----------------
6----------------4-4-4-4-X2--6-6-6-6-X2------------- X4

Chorus pt. 2
1-----------------------------------------------
2-----------------------------------------------
3---4-4-4--4-4-4--4-4--4-4-4--4-4-4--4-4--------
4---x-x-x--x-x-x--x-x--x-x-x--x-x-x--x-x--------
5---2-2-2--2-2-2--2-2--2-2-2--2-2-2--2-2--------
6----------------------------------------------- X8
Bridge
1-----------------------------------------------
2-----------------------------------------------
3---4-4-4--4-4-4--4-4--4-4-4--4-4-4--4-4--------
4---x-x-x--x-x-x--x-x--x-x-x--x-x-x--x-x--------
5---2-2-2--2-2-2--2-2--2-2-2--2-2-2--2-2--------
6-----------------------------------------------

Intro
Verse
Chorus pt. 1
Chorus pt. 2
Bridge
Verse
Chorus pt. 1
Chorus pt. 2
Intro
Intro

Go
x=Mute
1----------------------------------------------------------
2----------------------------------------------------------
3---9--9--9--9--9--9--9--9---------------------------------
4--10-10-10-10-10-10-10-10-----3-3-3-3-3-3-3-3-------------
5---7--7--7--7--7--7--7--7-----3-3-3-3-3-3-3-3-------------
6---8--8--8--8--8--8--8--8-X2--1-1-1-1-1-1-1-1-X2---------- X2

Verse
1------------------------------------------------------------------------
2------------------------------------------------------------------------
3------------------------------------------------------------------------
4------------------------------------------------------------------------
5---3-3-3-3-3-3-3-3-3-3-3-3-3-3-2-5--------------------------------------
6------------------------------------1-1-1-1-1-1-1-1-1-1-1-1-1-1-1-1----- X2

Chorus
1-----------------------------------------------
2-----------------------------------------------
3-----------------------------------------------
4---7-7-7-7-7-7-7-7--3-3-3-3-3-3-3-3------------
5---7-7-7-7-7-7-7-7--3-3-3-3-3-3-3-3------------

6---5-5-5-5-5-5-5-5--1-1-1-1-1-1-1-1------------ X2

Solo
1-----------------------------------------------
2-----------------------------------------------
3-----------------------------------------------
4-----------------------------------------------
5---3-5-7-3-3-2-3-5-3--3-5-3-3-2-3-3------------
6-----------------------------------------------
Verse 3
1------------------------------------------------
2------------------------------------------------
3------------------------------------------------
4------------------------------------------7-----
5------------------------------------------7-----
6------------------------------------------5-----

Pause
1-----------------------------------------------
2-----------------------------------------------
3-----------------------------------------------
4-----------------------------------------------
5-----------------------------------------------
6-----------------------------------------------
End 1
1----------------------------------------------------------------
2----------------------------------------------------------------
3---9--9--9--9--9--9--9--9----5-5-5-7-7-7-9-9-9--10--10--10------
4--10-10-10-10-10-10-10-10----x-x-x-x-x-x-x-x-x---x---x---x------
5---7--7--7--7--7--7--7--7----3-3-3-5-5-5-7-7-7---8---8---8------
6---8--8--8--8--8--8--8--8-X2------------------------------------ X3
End 2
1-------------------------------------------------
2-------------------------------------------------
3---9--9--9--9--9--9--9--9------------------------
4--10-10-10-10-10-10-10-10--3---------------------
5---7--7--7--7--7--7--7--7--3---------------------
6---8--8--8--8--8--8--8--8--1---------------------
Intro
Verse
Chorus
Intro
Verse
Chorus
Solo
Verse 3
Pause
Chorus
End 1
End 2

Asenthia
Intro/Verse
1-------------------------------------------------------
2---------------7~----------------7~--------------------
3---7~------7~------7~-----7~---------------------------
4------------------------------5~-----------------------
5-------5~--------------5~------------------------------
6------------------------------------------------------- X5
Pre-Chorus
1------------------------------------------------
2------------------------------------------------
3------------------------------------------------
4---7-7-7-9-7-7-7-9-7-7-7-9-7-7-7-9-7-7-7-9------
5---5-4-5-7-5-4-5-7-5-4-5-7-5-4-5-7-5-4-5-7------
6------------------------------------------------
Chorus
1------------------------------------------------
2------------------------------------------------
3------------------------------------------------
4---7-7-7-9-7-7-7-9-7-7-7-9-7-7-7-9-7-7-7-9------
5---5-4-5-7-5-4-5-7-5-4-5-7-5-4-5-7-5-4-5-7------
6------------------------------------------------
Solo
1-----------------------------------------------
2-----------------------------------------------
3-----------------------------------------------
4---4-4-4-5-5-5-2-2-2---------------------------
5-----------------------------------------------
6----------------------------------------------- X4
Intro/Verse
Pre-Chorus
Chorus
Intro/Verse
Pre-Chorus
Chorus
Chorus
Solo
Chorus


Always
R~=Let It Ring
~=Few Times
Standard Turning

Intro

E|--------------------------------------|
B|-4--~----4--~----4--~----4--~---------|
G|-4-------4-------4-------4------------|
D|-X-------X-------X-------2------------|
A|-2-------4-------X-------2------------|
E|-----------------4-------0------------| (X2)

Verses

E|--------------------------------------|
B|-4-~----4-~----4--~-------------------|
G|-4------4------4----------------------|
D|-X------X------x----------------------|
A|-2------4------x----------------------|
E|---------------4----------------------|

Pre Chorus

E|--------------------------------------|
B|-4--~---------------------------------|
G|-4------------------------------------|
D|-4------------------------------------|
A|-2------------------------------------|
E|--------------------------------------|

Chorus

E|--------------------------------------|
B|--------------------------------------|
G|-4--~--6--~---------------------------|
D|-4-----6-----6-~----2--~--------------|
A|-2-----4-----6------2-----------------|
E|-------------4------0-----------------|

Awhile After Chrous

E|--------------------------------------|
B|--0--4--0--0--4--0--4-----------------|
G|--------------------------------------|
D|--------------------------------------|
A|--------------------------------------|
E|--------------------------------------| A Few Times With Different Ryhme.

Verse
Pre Chorus
Chorus

Awhile After Second Chours

E|--------------------------------------------------------------|
B|--5h6--5--6--5--6---------------------------------------------|<


Intro

E|--------------------------------------------------|
B|--------------------------------------------------|
G|--------------------------------------------------|
D|-4-~---------7-~--------2-~-----------------------|
A|-4-----------7----------2-------------------------|
E|-2-----------5----------0-------------------------| X4
Verse

E|------------------------------------------------------|
B|------------------------------------------------------|
G|--6---------4-4-4------6-6-6--------------------------|
D|--6---------4-4-4------6-6-6--7-----------------------|
A|--4-X16-----2-2-2------4-4-4--7-----------------------|
E|------------------------------5~----------------------| X4
Добавлено: 13.10.2013
Другие материалы по этой песне:
  • Аккорды и текст

Страница создана 13.10.2013
http://primanota.ru/blink-182/all-new-songs-chords.htm
Привет, Гость.
Предлагаем пройти революционный курс по гитаре.
Подарок от PrimaNota.Ru, забирай!