PrimaNota.ru - самый крупный в мире бесплатный архив песенных текстов, аккордов, табулатур и нот


Blink-182 - Take Off Your Pants And Jacket (ver 4) (album) - бас-таба, видео

Регистрация Запомнить меня
Войти через:  Facebook Google Twitter Vk Yandex Mail.ru

Blink-182 - Take Off Your Pants And Jacket (ver 4) (album) - бас-таба, видео

Печатать
Просмотров: 52
Tabbed by: JimBlenderBR



Blink 182 - Take Off Your Pants and Jacket - 2001


- Tracklist:

01. Anthem Part 2 - (Tabbed by JimBlenderBR)
02. Online Songs - (Tabbed by JimBlenderBR)
03. First Date - (Tabbed by JimBlenderBR)
04. Happy Holidays You Bastard - (Tabbed by JimBlenderBR)
05. Story Of A Lonely Guy - (Tabbed by JimBlenderBR)
06. The Rock Show - (Tabbed by JimBlenderBR)
07. Stay Together For The Kids - (Tabbed by JimBlenderBR)
08. Roller Coaster - (Tabbed by JimBlenderBR)
09. Reckless Abandon - (Tabbed by JimBlenderBR)
10. Everytime I Look For You - (Tabbed by JimBlenderBR)
11. Give Me One Good Reason - (Tabbed by JimBlenderBR)
12. Shut Up - (Tabbed by JimBlenderBR)
13. Please Take Me Home - (Tabbed by JimBlenderBR)

Bonus Tracks:

14.) Don't Tell Me It's Over - (Tabbed by JimBlenderBR)
15.) Time To Break Up - (Tabbed by JimBlenderBR)
16.) What Went Wrong - NO BASS
17.) Fuck A Dog - NO BASS
18.) When You Fucked Grandpa - NO BASS
19.) Mother's Day - NO BASS



-----------------------------------------------------------------------------
                             1. Anthem Part Two
-----------------------------------------------------------------------------
Tabbed by: JimBlenderBR



*r = let ring



Enjoy!



- Intro :

G|------------------------------------------------------|
D|------------------------------------------------------|
A|--------------------------555555--000000--888888------|
E|------------------------------------------------------|

G|----------------------------------|
D|----------------------------------|  
A|--333333--555555--000000--888888--|   x4
E|----------------------------------|

G|------------------------------------|
D|------------------------------------|  
A|--333333--555555--000000--888--888--|   
E|------------------------------------|

G|--------------------------------|
D|--------------------------------|  
A|--333333333333--000000----------|   
E|------------------------111111--|

G|----------------------------|
D|----------------------------|  
A|--333333333333--000000------|   
E|------------------------1r--|



- Verse 1:
(Everything has fallen to pieces...)

G|--------------------------------|
D|--------------------------------|  
A|--333333333333--000000----------|   
E|------------------------111111--|


G|--------------------------------|
D|--------------------------------|  
A|--333333333333--000000--888888--|   
E|--------------------------------|

(We need guidance...)

G|--------------------------------|
D|--------------------------------|  
A|--333333333333--000000----------|   
E|------------------------111111--|


G|--------------------------------|
D|--------------------------------|  
A|--333333333333--000000--888888--|   
E|--------------------------------|


G|--------------------------|
D|----14--------12------10--|
A|-12-----12/10-----10/8----|
E|--------------------------|



- Verse 2:
(Corporate leaders...)

G|--------------------------------|
D|--------------------------------|  
A|--333333333333--000000----------|   
E|------------------------111111--|


G|--------------------------------|
D|--------------------------------|  
A|--333333333333--000000--888888--|   
E|--------------------------------|


(Laws that rule...)

G|--------------------------------|
D|--------------------------------|  
A|--333333333333--000000----------|   
E|------------------------111111--|


G|--------------------------------|
D|--------------------------------|  
A|--333333333333--000000--888888--|   
E|--------------------------------|



G|--------------------------|
D|----14--------12------10--|
A|-12-----12/10-----10/8----|
E|--------------------------|


- Chorus:
(We really need to...)

G|----------------------------------|
D|----------------------------------|
A|--777777--888888--333333----------|     x2
E|--------------------------333333--|


(We'll never give up...)

G|----------------------------------------------|
D|----------------------------------------------|
A|--000000--888888--333333----------000000------|     
E|--------------------------333333----------1r--|




- Post-Chorus:

G|--------------------------------|
D|--------------------------------|  
A|--333333333333--000000----------|   
E|------------------------111111--|

G|----------------------------|
D|----------------------------|  
A|--333333333333--000000------|   
E|------------------------1r--|



- Verse 3:
(Let this train wreck...)

G|--------------------------------|
D|--------------------------------|  
A|--333333333333--000000----------|   
E|------------------------111111--|


G|--------------------------------|
D|--------------------------------|  
A|--333333333333--000000--888888--|   
E|--------------------------------|


(Drown our youth with...)

G|--------------------------------|
D|--------------------------------|  
A|--333333333333--000000----------|   
E|------------------------111111--|


G|--------------------------------|
D|--------------------------------|  
A|--333333333333--000000--888888--|   
E|--------------------------------|



G|--------------------------|
D|----14--------12------10--|
A|-12-----12/10-----10/8----|
E|--------------------------|



- Chorus:
(We really need to...)

G|----------------------------------|
D|----------------------------------|
A|--777777--888888--333333----------|     x2
E|--------------------------333333--|


(We'll never give up...)

G|----------------------------------------------|
D|----------------------------------------------|
A|--000000--888888--333333----------000000------|     
E|--------------------------333333----------1r--|




- Bridge:

G|--------------------------------|
D|--------------------------------|  
A|--333333333333--000000----------|   
E|------------------------111111--|  x3


G|--------------------------------|
D|--------------------------------|  
A|--333333333333--000000--888888--|   
E|--------------------------------|


* 10(Ten) Not 1-0 (One and Zero)
G|----------------------------------|
D|--10-10-10-10-10-10-10-10-10-10--*|  
A|--10-10-10-10-10-10-10-10-10-10--*|    x2
E|----------------------------------|



- Chorus:
(We really need to...)

G|----------------------------------|
D|----------------------------------|
A|--777777--888888--333333----------|     x2
E|--------------------------333333--|


(We'll never give up...)

G|----------------------------------------------|
D|----------------------------------------------|
A|--000000--888888--333333----------000000------|     
E|--------------------------333333----------1r--|


- Ending:

G|----------------------------------|
D|----------------------------------|  
A|--333333--555555--000000----------|   x2
E|--------------------------111111--|

G|----------------------------------|
D|----------------------------------|  
A|--333333--555555--000000--888888--|   
E|----------------------------------|

G|------------------------------|
D|------------------------------|  
A|--333333--555555--000000------|   
E|--------------------------1r--|




-----------------------------------------------------------------------------
                             2. Online Songs
-----------------------------------------------------------------------------
Tabbed by: JimBlenderBR



*r = let ring



Enjoy!



- Intro:
(Josie, you're my...)

G|-----------------------------------------|
D|-----------------------------------------|
A|--00000000--2222222--55555555--77777777--|  x3
E|-----------------------------------------|



(They all know...)

G|-----------------------------------|
D|-----------------------------------|
A|--00000000--2222222--55555555--7r--| 
E|-----------------------------------|



- Instrumental:

G|-------------------------------------------|
D|-------------------------------------------|
A|--00000000--2222222--55555555--77777777----|
E|-------------------------------------------|

G|--------------------------------------|
D|--------------------------------------|
A|--00000000--2222222--55555555--7-7-7--| 
E|--------------------------------------|



- Verse 1:
(Why do you still keep it around...)

G|-------------------------------------------|
D|-------------------------------------------|
A|--00000000--2222222--5555--4444--00000000--|  
E|-------------------------------------------|



(And I know that you dated...)

G|---------------------------------------|
D|---------------------------------------|
A|--00000000--2222222--5555--4444--0000--|  
E|---------------------------------------|



- Instrumental:

G|-----------------------------------------|
D|-----------------------------------------|
A|--00000000--2222222--55555555--77777777--|
E|-----------------------------------------|

G|--------------------------------------|
D|--------------------------------------|
A|--00000000--2222222--55555555--7-7-7--| 
E|--------------------------------------|



- Verse 2:
(Why am I still hanging around...)

G|-------------------------------------------|
D|-------------------------------------------|
A|--00000000--2222222--5555--4444--00000000--|  
E|-------------------------------------------|



(And you are getting...)

G|---------------------------------------|
D|---------------------------------------|
A|--00000000--2222222--5555--4444--0000--|  
E|---------------------------------------|



- Chorus: 
(Please don't remind me...)

G|----------------------------------|
D|----------------------------------|
A|--555555--000000----------555555--|  x2
E|------------------000000----------|



- Verse 3:
(And if we can have another day...)

G|-------------------------------------------|
D|-------------------------------------------|
A|--00000000--2222222--5555--4444--00000000--|  
E|-------------------------------------------|



(And I'll laugh...)

G|---------------------------------------|
D|---------------------------------------|
A|--00000000--2222222--5555--4444--0000--|  
E|---------------------------------------|



- Chorus: 
(Please don't remind me...)

G|----------------------------------|
D|----------------------------------|
A|--555555--000000----------555555--|  x2
E|------------------000000----------|


(Please don't remind me...)

G|----------------------------------|
D|----------------------------------|
A|--555555--000000----------555555--|  x2
E|---------------------000----------|




- Bridge:
(And she said...)


G|--------------------------------|
D|--------------------------------|
A|-------5-5--00000000------------|  x2
E|--2-2-----------------00000000--|



(Na na na na na...)

G|-----------------------------------------|
D|-----------------------------------------|
A|------------55555555--0000000------------|  
E|--22222222---------------------00000000--|



(Na na na na na...)

G|-----------------------------------------|
D|-----------------------------------------|
A|------------55555555--0000000--77777777--|  
E|--22222222-------------------------------|



- Chorus: 
(Please don't remind me...)

G|----------------------------------|
D|----------------------------------|
A|--555555--000000----------555555--|  x2
E|------------------000000----------|



(Please don't remind me...)

G|----------------------------------|
D|----------------------------------|
A|--555555--000000----------555555--|  x2
E|---------------------000----------|




- Ending:
(And she said...)

G|-------------|
D|-------------|
A|--999--0-5r--|
E|-------------|


__________

Tabbed by: JimBlenderBR




-----------------------------------------------------------------------------
                             3. First Date
-----------------------------------------------------------------------------
Tabbed by: JimBlenderBR



*r = let ring



Enjoy!



- Intro:

G|---------------------------------------------------|
D|---------------------------------------------------|   
A|--33333333--55555555--88888888--1010101010101010*--|         *10(Ten). Not 1-0
E|---------------------------------------------------|  x2



- Verse 1:
(In the car I just can't wait...)

G|----------------------------------------|
D|----------------------------------------|   
A|--3333333333333333----------------------|
E|--------------------33333333--11111111--|  x4



- Chorus :
(Let's go...)

G|-------------------------------|
D|-------------------------------|
A|--333--222--00000000-----------|
E|----------------------111-333--|  x2


(Forever, and ever...)

G|-----------------------------------------|
D|-----------------------------------------|
A|--33333333--22222222--00000000-----------|
E|--------------------------------111-333--|  x2



- Post-Chorus:

G|---------------------------------------------------|
D|---------------------------------------------------|   
A|--33333333--55555555--88888888--1010101010101010*--|         *10(Ten). Not 1-0
E|---------------------------------------------------|  x2



- Verse 2:
(When you smile...)

G|----------------------------------------|
D|----------------------------------------|   
A|--3333333333333333----------------------|
E|--------------------33333333--11111111--|  x4



- Chorus:
(Let's go...)

G|-------------------------------|
D|-------------------------------|
A|--333--222--00000000-----------|
E|----------------------111-333--|  x2


(Forever, and ever...)

G|-----------------------------------------|
D|-----------------------------------------|
A|--33333333--22222222--00000000-----------|
E|--------------------------------111-333--|  x2



- Interlude:

G|------------------------------------------|
D|------------------------------------------|
A|--33333333--------------------------------|
E|------------00000000--11111111--33333333--| x6



- Chorus:
(Let's go...)

G|--------------------------------|
D|--------------------------------|
A|--333--222--00000000------------|
E|----------------------111--333--|  x2



(Forever, and ever...)

G|-----------------------------------------|
D|-----------------------------------------|
A|--33333333--22222222--00000000-----------|
E|--------------------------------111-333--| x2



(Forever, and ever...)

G|------------------------------------|
D|------------------------------------|
A|--333--222--00000000----------0-3r--|
E|----------------------11--33--------|


__________

Tabbed by: JimBlenderBR




-----------------------------------------------------------------------------
                         4. Happy Holidays You Bastard
-----------------------------------------------------------------------------
Tabbed by: JimBlenderBR



*r = let ring


- Verse 1:
(It's christmas eve...)

G|----------------------|
D|----------------------|
A|--22222222------------|  x2
E|------------22222222--|



- Pre-Chorus:
(And I hate, hate your guts...)

G|---------------------------------------------|
D|---------------------------------------------|
A|----------------------2222-------------------|  
E|--44444444--00000000--------2222--0r--0-0-0--|



- Chorus: 
(I'll never talk to you again...)

G|------------------------|
D|------------------------|
A|--2222------------------|  x3
E|--------2222--00000000--|



- Verse 1:
(It's labour day...)

G|----------------------|
D|----------------------|
A|--22222222------------|  x2
E|------------22222222--|



- Pre-Chorus:
(And he shit...)

G|---------------------------------------------|
D|---------------------------------------------|
A|----------------------2222-------------------|  
E|--44444444--00000000--------2222--0r--0-0-0--|



- Chorus: 
(I'll never talk to you again...)

G|------------------------|
D|------------------------|
A|--2222------------------|  x2
E|--------2222--00000000--|



(I'll never talk to you again...)

G|-----------------------------------|
D|-----------------------------------|
A|--2222--------------------2r----2--|  
E|--------2222--0000--2222-----------|



__________
Tabbed by: JimBlenderBR




-----------------------------------------------------------------------------
                          5. Story Of A Lonely Guy
-----------------------------------------------------------------------------
Tabbed by: JimBlenderBR



*r = let ring




- Intro :

G|----9---9--9----9---9--9----6---6--6----2--4--6--|      
D|--77--77--7---99--99--9---44--44--4---00--0--0---|      
A|-------------------------------------------------|     
E|-------------------------------------------------|    


G|----9---9--9----9---9--9----6---6--6----2--4--2--|      
D|--77--77--7---99--99--9---44--44--4---00--0--0---|      
A|-------------------------------------------------|     
E|-------------------------------------------------|    




- Verse 1:
(Push it out...)


G|------------------------------------------|
D|------------------------------------------|
A|--00000000--22222222--44444444--55555555--|   x4
E|------------------------------------------|




- Pre-Chorus:
(Da da da da...)

G|------------------------------------------|
D|------------------------------------------|
A|--44444444--55555555--00000000--77777777--|
E|------------------------------------------|

G|------------------------------------------|
D|------------------------------------------|
A|--44444444--55555555--00000000--77779977--|
E|------------------------------------------|



- Chorus:
(She makes me feel...)

G|------------------------------------------|
D|----------------------44444444------------|
A|--00000000--22222222------------55555555--|   x4
E|------------------------------------------|




- Post-Chorus:

G|----9---9--9----9---9--9----6---6--6----2--4--6--|      
D|--77--77--7---99--99--9---44--44--4---00--0--0---|      
A|-------------------------------------------------|     
E|-------------------------------------------------|    


G|----9---9--9----9---9--9----6---6--6----2--4--2--|      
D|--77--77--7---99--99--9---44--44--4---00--0--0---|      
A|-------------------------------------------------|     
E|-------------------------------------------------|    



- Verse 2:
(Remember when...)

G|------------------------------------------|
D|------------------------------------------|
A|--00000000--22222222--44444444--55555555--|   x4
E|------------------------------------------|




- Pre-Chorus:
(Da da da da...)

G|------------------------------------------|
D|------------------------------------------|
A|--44444444--55555555--00000000--77777777--|
E|------------------------------------------|

G|------------------------------------------|
D|------------------------------------------|
A|--44444444--55555555--00000000--77779977--|
E|------------------------------------------|



- Chorus:
(She makes me feel...)

G|------------------------------------------|
D|----------------------44444444------------|
A|--00000000--22222222------------55555555--|   x4
E|------------------------------------------|



- Bridge:

G|----------------------------------------|
D|----------------------------------------|
A|--44444444--55555555--7777777777777777--|  x2
E|----------------------------------------|

G|---------------------------------------------------------------|
D|---------------------------------------------------------------|
A|--44444444--55555555--77777777--------------4444444--22222222--|  
E|--------------------------------5555--4444---------------------|



- Chorus:
(She makes me feel...)

G|------------------------------------------|
D|----------------------44444444------------|
A|--00000000--22222222------------55555555--|   x4
E|------------------------------------------|

G|-----------------------------------------------------|
D|----------------------44444444-----------------------|
A|--00000000--22222222------------555-555-555-555--0r--|   
E|-----------------------------------------------------|


__________
Tabbed by: JimBlenderBR





-----------------------------------------------------------------------------
                             6. The Rock Show
-----------------------------------------------------------------------------
Tabbed by: JimBlenderBR



- Intro :

G|----------------------------------------|
D|----------------------------------------|
A|--0000000000000000--55555555--77777777--|  x2
E|----------------------------------------|

G|--------------------|
D|--------------------|
A|--0000000000000000--|
E|--------------------|



- Verse 1:
(Hanging out...)

G|----------------------------------------|
D|----------------------------------------|
A|--0000000000000000--55555555--77777777--|  x2
E|----------------------------------------|



- Instrumental:

G|----------------------------------------|
D|----------------------------------------|
A|--0000000000000000--55555555--77777777--|  x2
E|----------------------------------------|



- Verse 2:
(She's getting kicked...)

G|----------------------------------------|
D|----------------------------------------|
A|--0000000000000000--55555555--77777777--|  x2
E|----------------------------------------|




- Chorus:
(Because I fell in love...)

G|-----------------|
D|-----------------|
A|--0-0-0------55--|  x3
E|---------22------|



(Everything's better...)

G|----------------------------------------------------------|
D|----------------------------------------------------------|
A|--77777777--55555555--77777777--55555555--77777777--5--4--|
E|----------------------------------------------------------|



- Post-Chorus:

G|----------------------------------------|
D|----------------------------------------|
A|--0000000000000000--55555555--77777777--|  x2
E|----------------------------------------|



- Verse 3:
(When we said...)

G|----------------------------------------|
D|----------------------------------------|
A|--0000000000000000--55555555--77777777--|  x2
E|----------------------------------------|


- Chorus:
(Because I fell in love...)

G|-----------------|
D|-----------------|
A|--0-0-0------55--|  x3
E|---------22------|



(Everything's better...)

G|----------------------------------------------------------|
D|----------------------------------------------------------|
A|--77777777--55555555--77777777--55555555--77777777--5--4--|
E|----------------------------------------------------------|




- Bridge:
(Black and white pictures...)

G|------------------------------------------------------------------|
D|------------------------------------------------------------------|
A|--99999999999999-7-5555555-7-5-4-2-00000000-0-4-5-77777777777777--|  x2
E|---------------------- -------------------------------------------|



- Chorus:
(Because I fell in love...)

G|-----------------|
D|-----------------|
A|--0-0-0------55--|  x3
E|---------22------|



(Everything's better...)

G|----------------------------------------------------------|
D|----------------------------------------------------------|
A|--77777777--55555555--77777777--55555555--77777777--5--4--|
E|----------------------------------------------------------|



- Ending:

G|----------------------------------------|
D|----------------------------------------|
A|--0000000000000000--55555555--77777777--|  Until Fades
E|----------------------------------------|


__________
Tabbed by: JimBlenderBR




-----------------------------------------------------------------------------
                          7. Stay Together For The Kids
-----------------------------------------------------------------------------
Tabbed by: Jim-BlenderBR
 - Please rate and send me your feedback - 

Intro/Verse 1

G|-------------|
D|-------------|
A|- No Bass ---|
E|-------------|

Chorus
(So here's your holiday...)

G|-------------------------------------|
D|-------------------------------------|
A|-------------------------------------|
E|--3333333333333333-2222222222222202--| x4

Verse 2
(Their anger hurts my ears...)

G|----7----7-----7----7-----7----7-----99--9---|
D|--00-0--0-0--99-9--9-9--77-7--7-7--77---7-7--|
A|---------------------------------------------|
E|---------------------------------------------| x2

Chorus
(So here's your holiday...)

G|-------------------------------------|
D|-------------------------------------|
A|-------------------------------------|
E|--3333333333333333-2222222222222202--| x4

Bridge

G|----7--7-7---7--7-7---7--7-7---7--7-7--|
D|--00-00-0--77-77-7--55-55-5--77-77-7---|
A|---------------------------------------|
E|---------------------------------------| x4

Instrumental

G|-------------------------------------|
D|-------------------------------------|
A|-------------------------------------|
E|--3333333333333333-2222222222222202--| x2

Chorus
(So here's your holiday...)

G|-------------------------------------|
D|-------------------------------------|
A|-------------------------------------| Play until the
E|--3333333333333333-2222222222222202--|      end...




-----------------------------------------------------------------------------
                             8. Roller Coaster
-----------------------------------------------------------------------------
Tabbed by: JimBlenderBR



*r = let ring




- Intro :

G|------------------------|
D|------------------------|
A|--44444444--555555--0r--|
E|------------------------|



- Chorus:
                             (Roller coaster...)

G|------------------------------------------------------------------|
D|------------------------------------------------------------------|  
A|----------------------------0000000000000000--55555555--2222--5r--|   
E|------------------------------------------------------------------|



- Interlude:

G|----------------------------------------|
D|----------------------------------------|  
A|--0000000000000000------------55555555--|   x2 
E|--------------------00000000------------|



- Verse 1:
(Leave me standing here...)

G|------------------------------------------|
D|------------------------------------------|  
A|--00000000--55555555--22222222--55555555--| x2  
E|------------------------------------------|



- Pre-Chorus:
(I had that dream...)

G|------------------------------------------|
D|------------------------------------------|  
A|--00000000--55555555--22222222--55555555--| x2  
E|------------------------------------------|



- Interlude:

G|----------------------------------------|
D|----------------------------------------|  
A|--0000000000000000------------55555555--|   x2 
E|--------------------00000000------------|



- Verse 2:
(Lay beside me...)


G|------------------------------------------|
D|------------------------------------------|  
A|--00000000--55555555--22222222--55555555--| x2  
E|------------------------------------------|



- Pre-Chorus:
(I had that dream...)

G|------------------------------------------|
D|------------------------------------------|  
A|--00000000--55555555--22222222--55555555--| x2  
E|------------------------------------------|



- Chorus:
(Breathing deeply...)

G|------------------------------------------|
D|------------------------------------------|  
A|--0r----------------55555555--2222--5555--|   
E|------------------------------------------|



(Roller coaster...)

G|------------------------------------------|
D|------------------------------------------|  
A|--0000000000000000--55555555--2222--5555--|   
E|------------------------------------------|



- Bridge:

G|----------------------------------------|
D|----------------------------------------|  
A|--0r------------------------------------|  
E|----------------------------------------|

G|----------------------------------------|
D|----------------------------------------|  
A|--0000000000000000------------55555555--|   x2
E|--------------------00000000------------|



- Verse 3:
(Make me promise...)

G|------------------------------------------|
D|------------------------------------------|  
A|--00000000--55555555--22222222--55555555--| x2  
E|------------------------------------------|



- Pre-Chorus:
(I had that dream...)


G|------------------------------------------|
D|------------------------------------------|  
A|--00000000--55555555--22222222--55555555--| x2  
E|------------------------------------------|



- Chorus:
(Breathing deeply...)

G|------------------------------------------|
D|------------------------------------------|  
A|--0000000000000000--55555555--2222--5555--| x2  
E|------------------------------------------| 



- Ending :
(Goodnight...)

G|------------------------|
D|------------------------|
A|--44444444--555555--0r--|
E|------------------------|




-----------------------------------------------------------------------------
                             9. Reckless Abandon
-----------------------------------------------------------------------------
Tabbed by: JimBlenderBR



*r = let ring



- Intro 1: No Bass



- Intro 2:

G|--------------------------|
D|--------------------------| 
A|--2222--------------------|  x4
E|--------0000--4444--2222--|



- Verse:
(I learned alot today...)


G|---------------------------------------|
D|---------------------------------------|
A|--2222222222222222---------------------|
E|--------------------22222222222222222--|



(Everybody would waste it all...)

G|------------------------------------------|
D|------------------------------------------|
A|--2222222222222222------------------------|
E|--------------------22222222222222222--2--|



- Chorus:
(On and on...)

G|----------------------------------------------------------------------------------------------------|
D|--------------------22--22--22--22-4--66666666--44444444--2222222222222222--66666666--44444444--2r--|
A|--22--22--22--22-4----2---2---2---------------------------------------------------------------------|
E|----2---2---2---------------------------------------------------------------------------------------|



- Post-Chorus:

G|--------------------------|
D|--------------------------| 
A|--2222--------------------|  x4
E|--------0000--4444--2222--|



- Verse 2 :
(Sip a drink of the alcohol...)

G|---------------------------------------|
D|---------------------------------------|
A|--2222222222222222---------------------|
E|--------------------22222222222222222--|



(He took a shit in the bathroom tub...)

G|------------------------------------------|
D|------------------------------------------|
A|--2222222222222222------------------------|
E|--------------------22222222222222222--2--|



- Chorus:
(On and on...)

G|----------------------------------------------------------------------------------------------------|
D|--------------------22--22--22--22-4--66666666--44444444--2222222222222222--66666666--44444444--2r--|
A|--22--22--22--22-4----2---2---2---------------------------------------------------------------------|
E|----2---2---2---------------------------------------------------------------------------------------|



- Instrumental:

G|------------------|
D|------------------| 
A|--2r--------------|  x3
E|------0r--4r--2r--|


G|----------------------|
D|----------------------|
A|--2r--------------2r--|
E|------0r--4r--2r------|



- Verse 3: No Bass



- Chorus:
(On and on...)

G|----------------------------------------------------------------------------------------------------------|
D|--------------------22--22--22--22-4--66666666--44444444--2222222222222222--66666666--44444444--2r--------|
A|--22--22--22--22-4----2---2---2-----------------------------------------------------------------------2r--|
E|----2---2---2---------------------------------------------------------------------------------------------|


__________

Tabbed by: JimBlenderBR




-----------------------------------------------------------------------------
                           10. Everytime I Look For You
-----------------------------------------------------------------------------
Tabbed by: JimBlenderBR

 - Give your rating and help others users to find the best versions of the songs - 

r = Let it Ring


Intro 

G|-------------|
D|-------------|
A|- No Bass ---|
E|-------------|


Verse 1
(I never found out why...)

G|--------------|
D|--------------|
A|--2r--4r--7r--|
E|--------------|  x4


Instrumental

G|---------------------------|
D|---------------------------|
A|--22222-99999-77777-44444--|
E|---------------------------|  x2


Verse 2
(One more point of contention...)

G|------------------------------|
D|------------------------------|
A|--22222222-44444444-77777777--|
E|------------------------------|  x2


Pre-Chorus
(Span the distance...)

G|--------------|
D|--------------|
A|--2r--4r--7r--|
E|--------------|  x2


Chorus
(Everytime I look for you...)

G|------------------------------|
D|------------------------------|
A|--------------------22222222--|
E|--44444444-00000000-----------|  x3

G|-----------------------------------------------|
D|-----------------------------------------------|
A|--------------------22222222-7777777777777777--|
E|--44444444-00000000----------------------------| 


Post-Chorus

G|---------------------------|
D|---------------------------|
A|--22222-99999-77777-44444--|
E|---------------------------|  x2


Verse 3
(More time apart will give you...)

G|------------------------------|
D|------------------------------|
A|--22222222-44444444-77777777--|
E|------------------------------|  x2


Pre-Chorus
(to drive the point home...)

G|--------------|
D|--------------|
A|--2r--4r--7r--|
E|--------------|  x2


Chorus
(Everytime I look for you...)

G|------------------------------|
D|------------------------------|
A|--------------------22222222--|
E|--44444444-00000000-----------|  x3

G|--------------------------------------------------|
D|--------------------------------------------------|
A|--------------------22222222-7777777777777777-----|
E|--44444444-00000000---------------------------7r--| 


Bridge

G|------------------------------------------------------------|
D|------------------------------------------------------------|
A|--Just Guitar-----------22222222-66666666-7777777777777777--|
E|------------------------------------------------------------| 

G|---------------------------------------|
D|---------------------------------------|
A|---22222222-66666666-7777777777777777--|
E|---------------------------------------|

(I never did do anything that she asked....)

G|---------------------------------------|
D|---------------------------------------|
A|---22222222-66666666-7777777777777777--|
E|---------------------------------------|  x2

Chorus
(Everytime I look for you...)

G|------------------------------|
D|------------------------------|
A|--------------------22222222--|
E|--44444444-00000000-----------|  x6

G|------------------|
D|------------------|
A|------------------|
E|--44444444-0-0-0--| 




-----------------------------------------------------------------------------
                           11. Give Me One Good Reason
-----------------------------------------------------------------------------
Tabbed by: JimBlenderBR

 - Give your rating and help others users to find the best versions of the songs - 

r = Let it Ring


Intro 

G|-------------|
D|-------------|
A|- No Bass ---|
E|-------------|


Verse 1
(Mom and dad they...)

G|----------------------------|
D|----------------------------|
A|--------22222-------22222---|
E|--00000-------00000---------|

(Why do girls wanna pierce...)

G|---------------------------|
D|---------------------------|
A|--44444-00000-44444-22222--|
E|---------------------------|


Instrumental

G|----------------------------|
D|----------------------------|
A|--------22222-------22222---|
E|--00000-------00000---------|


(I like the ones who say...)

G|----------------------------|
D|----------------------------|
A|--------22222-------22222---|
E|--00000-------00000---------|

(They hate the trends...)

G|---------------------------|
D|---------------------------|
A|--44444-00000-44444-22222--|
E|---------------------------|


Instrumental

G|----------------------------|
D|----------------------------|
A|--------22222-------22222---|
E|--00000-------00000---------|


Chorus
(So give me one good reason...)

G|--------------------------------------|
D|--------------------------------------|
A|--------------------2222222222222222--|
E|--00000000-44444444-------------------|

(Why we need to be like them...)

G|---------------------------------------|
D|---------------------------------------|
A|--------------------22222222-00000000--|
E|--00000000-44444444--------------------|

(Kids will have fun and offend...)

G|--------------------------------------|
D|--------------------------------------|
A|--------------------2222222222222222--|
E|--00000000-44444444-------------------|

(They don't want to and don't fit in...)

G|---------------------------------------|
D|---------------------------------------|
A|--------------------22222222-00000000--|
E|--00000000-44444444--------------------|


Post-Chorus

G|----------------------------|
D|----------------------------|
A|--------22222-------22222---|
E|--00000-------00000---------|

G|---------------------------|
D|---------------------------|
A|--44444-00000-44444-22222--|
E|---------------------------|


Verse 2
(Hate the jocks, the preps...)

G|----------------------------|
D|----------------------------|
A|--------22222-------22222---|
E|--00000-------00000---------|

(Counting seconds until we can...)

G|---------------------------|
D|---------------------------|
A|--44444-00000-44444-22222--|
E|---------------------------|


Pre-Chorus

G|----------------------------|
D|----------------------------|
A|--------22222-------22222---|
E|--00000-------00000---------|

G|----------------------------|
D|----------------------------|
A|--------22222-------22222---|
E|--00000-------00000---------|


Chorus
(So give me one good reason...)

G|--------------------------------------|
D|--------------------------------------|
A|--------------------2222222222222222--|
E|--00000000-44444444-------------------|

(Why we need to be like them...)

G|---------------------------------------|
D|---------------------------------------|
A|--------------------22222222-00000000--|
E|--00000000-44444444--------------------|

(Kids will have fun and offend...)

G|--------------------------------------|
D|--------------------------------------|
A|--------------------2222222222222222--|
E|--00000000-44444444-------------------|

(They don't want to and don't fit in...)

G|---------------------------------------|
D|---------------------------------------|
A|--------------------22222222-00000000--|
E|--00000000-44444444--------------------|


Bridge/Instrumental

G|-----------------------------------------------------------------------|
D|-----------------------------------------------------------------------|
A|--4444444444444444-0000000000000000-4444444444444444-2222222222222222--|
E|-----------------------------------------------------------------------|

G|---------------------------------------------------------------------------|
D|---------------------------------------------------------------------------|
A|--4444444444444444-0000000000000000-4444444444444444-22222222-00000000-----|
E|-----------------------------------------------------------------------0r--|


Chorus
(So give me one good reason...)

G|--------------------------------------|
D|--------------------------------------|
A|--------------------2222222222222222--|
E|--00000000-44444444-------------------|

(Why we need to be like them...)

G|---------------------------------------|
D|---------------------------------------|
A|--------------------22222222-00000000--|
E|--00000000-44444444--------------------|

(Kids will have fun and offend...)

G|--------------------------------------|
D|--------------------------------------|
A|--------------------2222222222222222--|
E|--00000000-44444444-------------------|

(They don't want to and don't fit in...)

G|------------------------------------------|
D|------------------------------------------|
A|--------------------22222222-00000000-----|
E|--00000000-44444444-------------------0r--|




-----------------------------------------------------------------------------
                           12. Shut Up
-----------------------------------------------------------------------------
Tabbed by: JimBlenderBR



*r = let ring
( ) = Optional Note



- Intro:

G:|------------------------------|
D:|------------------------------|
A:|--------00000000--4444--5555--|
E:|------------------------------| 

G:|------------------------|
D:|------------------------|
A:|--00000000--4444--5555--|  x3
E:|------------------------| 




- Verse 1:
(Shut the fuck up...)

G:|------------------------|
D:|------------------------|
A:|--00000000--4444--5555--|  x3
E:|------------------------| 



(I wanna move out...)

G:|----------------------------|
D:|----------------------------|
A:|--00000000--4444--5555--0r--|  
E:|----------------------------| 



- Interlude: No Bass



- Instrumental:
(I'll run away...)

G:|------------------------|
D:|------------------------|
A:|--00000000--4444--5555--|  x2
E:|------------------------| 



- Verse 2:
(Get the fuck up...)

G:|------------------------|
D:|------------------------|
A:|--00000000--4444--5555--|  x4
E:|------------------------| 



- Chorus:
(I'll never...)

G:|----------------------(222222)--|
D:|--------------------------------|
A:|--555555------000000------------|  x2
E:|--------------------------------|


(I'm not coming...)
G:|----------------------|
D:|----------------------|
A:|--22222222--55555555--|
E:|----------------------| x2



- Verse 3: 
(I got too fucked up...)

G:|------------------------|
D:|------------------------|
A:|--00000000--4444--5555--|  x4
E:|------------------------| 



- Chorus:
(I'll never...)

G:|----------------------(222222)--|
D:|--------------------------------|
A:|--555555------000000------------|  x2
E:|--------------------------------| 


(I'm not coming...)
G:|----------------------|
D:|----------------------|
A:|--22222222--55555555--|
E:|----------------------| x2




- Bridge:
G:|------------------|
D:|---2---2---2---2--|
A:|-22--22--44--00---| x6
E:|------------------| 



- Instrumental:

G:|------------------------|
D:|------------------------|
A:|--00000000--4444--5555--|  x4
E:|------------------------| 



- Chorus:
(I'll never...)

G:|----------------------(222222)--|
D:|--------------------------------|
A:|--555555------000000------------|  x2
E:|--------------------------------| 


(I'm not coming...)
G:|----------------------|
D:|----------------------|
A:|--22222222--55555555--| x2
E:|----------------------| 



- Ending:
(I runaway...)

G:|------------------------|
D:|------------------------|
A:|--00000000--4444--5555--|  x3
E:|------------------------| 



(I runaway...)

G:|----------------------------|
D:|----------------------------|
A:|--00000000--4444--5555--0r--|  
E:|----------------------------| 




-----------------------------------------------------------------------------
                          13. Please Take Me Home
-----------------------------------------------------------------------------
Tabbed by: Jim-BlenderBR
 - Please rate and send me your feedback -


r = Let it Ring


Intro : No Bass

Verse 1
(Oh no it happend again...)

G|------------------------------------------|
D|------------------------------------------|
A|--22222222--44444444----------------------|
E|----------------------44444444--00000000--|

G|------------------------------------------|
D|------------------------------------------|
A|--22222222--44444444------------77777777--|
E|----------------------44444444------------|

G|------------------------------------------|
D|------------------------------------------|
A|--22222222--44444444----------------------|
E|----------------------44444444--00000000--|

G|------------------------------------------|
D|------------------------------------------|
A|--22222222--44444444------------77777777--|
E|----------------------44444444------------|

Pre-Chorus 
(She's unstopable, unpredictable...)

G|-------------------------------------------------------------|
D|-------------------------------------------------------------|
A|---------22222-----------------------------------------------|
E|--00000---------44444--22222--0000000000000000--66666666/2r--|

Chorus
(Please take me home...)

G|------------------------------------------|
D|------------------------------------------|
A|--22222222--11111111------------77777777--|
E|----------------------44444444------------|

G|------------------------------------|
D|------------------------------------|
A|--22222222--11111111----------------|
E|----------------------44444444--0r--|

Verse 2
(Buy hope, hope that it lasts...)

G|------------------------------------------|
D|------------------------------------------|
A|--22222222--44444444----------------------|
E|----------------------44444444--00000000--|

G|------------------------------------------|
D|------------------------------------------|
A|--22222222--44444444------------77777777--|
E|----------------------44444444------------|

G|------------------------------------------|
D|------------------------------------------|
A|--22222222--44444444----------------------|
E|----------------------44444444--00000000--|

G|------------------------------------------|
D|------------------------------------------|
A|--22222222--44444444------------77777777--|
E|----------------------44444444------------|

Pre-Chorus
(She's unstopable, unpredictable...)

G|-------------------------------------------------------------|
D|-------------------------------------------------------------|
A|---------22222-----------------------------------------------|
E|--00000---------44444--22222--0000000000000000--66666666/2r--|

Chorus
(Please take me home...)

G|------------------------------------------|
D|------------------------------------------|
A|--22222222--11111111------------77777777--|
E|----------------------44444444------------|

G|------------------------------------------|
D|------------------------------------------|
A|--22222222--11111111----------------------|
E|----------------------44444444--00000000--|

G|------------------------------------------|
D|------------------------------------------|
A|--22222222--11111111------------77777777--|
E|----------------------44444444------------|

G|------------------------------------|
D|------------------------------------|
A|--22222222--11111111----------------|
E|----------------------44444444--0r--|

Bridge

G|---------------------|
D|---------------------|
A|--22---22---22---22--|
E|---------------------| x2

(Be strong when things fall apart...)

G|------------------------------------------|
D|------------------------------------------|
A|--22222222--44444444--66666666--77776666--|
E|------------------------------------------|

G|------------------------------------------|
D|------------------------------------------|
A|--22222222--44444444--66666666--77777777--|
E|------------------------------------------|

(Let's go!)

G|------------------------------------------|
D|------------------------------------------|
A|--22222222--11111111------------77777777--|
E|----------------------44444444------------| x2

G|-----------------------------|
D|-----------------------------|
A|--222/4--111/3-------777777--|
E|----------------444----------|

G|-----------------------------------------------|
D|-----------------------------------------------|
A|--222/4--111/3---------------------------------|
E|----------------444--000000--2222222222222222--|

Chorus
(Please take me home...)

G|------------------------------------------|
D|------------------------------------------|
A|--22222222--11111111------------77777777--|
E|----------------------44444444------------|

G|------------------------------------------|
D|------------------------------------------|
A|--22222222--11111111----------------------|
E|----------------------44444444--00000000--|

G|------------------------------------------|
D|------------------------------------------|
A|--22222222--11111111------------77777777--|
E|----------------------44444444------------|

G|------------------------------------|
D|------------------------------------|
A|--22222222--11111111----------------|
E|----------------------44444444--0r--|




Bonus Tracks:




-----------------------------------------------------------------------------
                        14. Don't Tell Me It's Over
-----------------------------------------------------------------------------
Tabbed by: JimBlenderBR



r = let ring
x = Mute note



- Verse 1:
(I hear the phone...)

G|---------------------------|
D|---------------------------|
A|--33333333333--------------| x4
E|---------------3333--1111--|



- Pre-Chorus:
(Hold on...)

G|-------------------------------|
D|-------------------------------|
A|--33333333333------------------| x2
E|---------------3333--11111111--|



- Chorus:
(Dont tell me that it's over...)

G|---------------------------|
D|---------------------------|
A|--033333333333-------------|  x4
E|---------------3333--1111--|



- Interlude:

G|-------------------|
D|---------3r----5r--|
A|--3r---------------|  x2
E|-------------------|




- Verse 1:
(What's with the jokes...)

G|---------------------------|
D|---------------------------|
A|--33333333333--------------|  x4
E|---------------3333--1111--|



- Pre-Chorus:
(Hold on...)

G|-------------------------------|
D|-------------------------------|
A|--33333333333------------------|  x2
E|---------------3333--11111111--|



- Chorus:
(Dont tell me that it's over...)

G|---------------------------|
D|---------------------------|
A|--033333333333-------------|  x4
E|---------------3333--1111--|




- Interlude:

G|-------------------|
D|---------3r----5r--|
A|--3r---------------|  x2
E|-------------------|


G|---------------------------------------|
D|-------------------55x55x--77--333333--|
A|--33x33x33x333333----------------------|  x4
E|---------------------------------------|



- Chorus:
(Dont tell me that it's over...)

G|---------------------------|
D|---------------------------|
A|--033333333333-------------|  x8
E|---------------3333--1111--|



- Ending:
(Dont tell me that it's over...)

G|-------|
D|-------|
A|--03r--|
E|-------|


__________

Tabbed by: JimBlenderBR




-----------------------------------------------------------------------------
                          15. Time To Break Up
-----------------------------------------------------------------------------
Tabbed by: JimBlenderBR



*r = let ring


- Intro:

G|------------------| 
D|------------------|
A|------------------|
E|--44--22--11--44--|


G|-------------------------------| 
D|-------------------------------|
A|--44446644466------------------| x2
E|---------------444444--22--44--|



- Verse:
(I guess it's only the men...)

G|----------------------------------------| 
D|----------------------------------------|
A|--4444444444444444----------------------|  x3
E|--------------------44444444--22222222--|



(And my excuse not to call...)

G|--------------------------------------| 
D|--------------------------------------|
A|--4444444444444444--------------------|  
E|--------------------44444444--22--22--|



- Chorus:
(Time to wake up...)

G|------------------------------------------| 
D|------------33333333--44444444--66666666--|   
A|--44444444--------------------------------|  x2
E|------------------------------------------|    




- Post-Chorus:
                                                                        
G|-------------------------------| 
D|-------------------------------|
A|--44446644466------------------| x2
E|---------------444444--22--44--|




- Verse:
(I used to hate the lipstick...)

G|----------------------------------------| 
D|----------------------------------------|
A|--4444444444444444----------------------|  x3
E|--------------------44444444--22222222--|



(The truth is I'm such a dick...)

G|--------------------------------------| 
D|--------------------------------------|
A|--4444444444444444--------------------|  
E|--------------------44444444--22--22--|



- Chorus:
(Time to wake up...)

G|------------------------------------------| 
D|------------33333333--44444444--66666666--|   
A|--44444444--------------------------------|  x2
E|------------------------------------------|    



- Instrumental:


G|------------------------------------------| 
D|------------------------------------------|
A|--4r--------------------------------------|
E|------------------------------------------|



- Bridge:
(If you want to call...)

G|---------------------------------------------| 
D|---------------------------------------------|
A|------------------------44444444-6-----------| 
E|--66666666-4-22222222-4------------44444444--|


(If you want the pain to go away...)

G|-----------------------------------------------| 
D|-----------------------------------------------|
A|--------------------------44444444-6-----------| 
E|--0-66666666-4-22222222-4------------44444444--|



(Let her go...)

G|-----------------------------------------------| 
D|-----------------------------------------------|
A|--0-44444444-6----------0-44444444-6-----------| x2
E|---------------44444444--------------44444444--|


G|-----------------------------------------| 
D|-----------------------------------------|
A|--4-4r------------4-4r-------------------| 
E|----------4-4r------------4-4r----44-44--|



- Chorus:
(Time to wake up...)


G|--------------------------------------------| 
D|--------------33333333--44444444--66666666--|   
A|----44444444--------------------------------|  
E|--------------------------------------------| 


G|---------------------------------------------| 
D|--------------3r----333--44444444--66666666--|   
A|----44444444---------------------------------|  
E|---------------------------------------------| 




- Ending:
(Move on...)

G|---------------------------------------------| 
D|---------------------------------------------|
A|--444444446------------0444444446------------|  
E|-------------44444444--------------44444444--|


G|----------------------------------------------------| 
D|----------------------------------------------------|
A|--0444444446------------0444444446-------------04r--|  
E|-------------44444444--------------44444444--4------|


__________
Tabbed by: JimBlenderBR
Добавлено: 09.02.2016
Другие материалы по этой песне:
  • Аккорды и текст

Страница создана 09.02.2016
http://primanota.ru/blink-182-2/take-off-your-pants-and-jacket-ver-4-album-chords.htm
Привет, Гость.
Предлагаем пройти революционный курс по гитаре.
Подарок от PrimaNota.Ru, забирай!