PrimaNota.ru - самый крупный в мире бесплатный архив песенных текстов, аккордов, табулатур и нот


Blink-182 - Hearts All Gone Interlude - таба, видео

Регистрация Запомнить меня
Войти через:  Facebook Google Twitter Vk Yandex Mail.ru

Blink-182 - Hearts All Gone Interlude - таба, видео

Печатать
Просмотров: 59
Blink 182
Hearts All Gone Interlude
Neighborhoods
2011 Geffen Records
Submitted by: paramore_fans@yahoo.com

Key: C

Tuning: Standard EADGBe

Chords used:
Am -  x02210
Dm -  xx0231
F -   133211
Em -  022000
C -   x32010
C/E - 032xxx


Verse 1:

Piano:
          Am          F
e|-------5--------5-|---|
B|----5--------5----|-6-|
G|------------------|---|
D|-7--------7-------|---| x5
A|------------------|---|
E|------------------|---|

         Am         F   G
e|-------5------5-|---|---|
B|----5------5----|-6-|-8-|
G|----------------|---|---|
D|-7------7-------|---|---|
A|----------------|---|---|
E|----------------|---|---|


Guitar:
              Am
e|---------------------------|
B|---------------------------|
G|-------5-5----------5-5----|
D|---------------------------|
A|-0--0-------0--0--0------0-|
E|---------------------------|

      F       C/E      F        C/E
e|---------|------|---------|------|
B|---------|------|---------|------|
G|-------5-|----5-|-------5-|----5-|
D|-3--3----|-2----|-3--3----|-2----|
A|---------|------|---------|------|
E|---------|------|---------|------|

              Am
e|---------------------------|
B|---------------------------|
G|-------5-5----------5-5--7-|
D|---------------------------|
A|-0--0-------0--0--0--------|
E|---------------------------|

      F       C/E      F        C/E
e|---------|------|---------|------|
B|---------|------|---------|------|
G|-------5-|----5-|-------5-|----5-|
D|-3--3----|-2----|-3--3----|-2----|
A|---------|------|---------|------|
E|---------|------|---------|------|

              Am
e|---------------------------|
B|---------------------------|
G|-------5-5----------5-5----|
D|---------------------------|
A|-0--0-------0--0--0------0-|
E|---------------------------|

      F       C/E      F        C/E
e|---------|------|---------|------|
B|---------|------|---------|------|
G|-------5-|----5-|-------5-|----5-|
D|-3--3----|-2----|-3--3----|-2----|
A|---------|------|---------|------|
E|---------|------|---------|------|

              Am
e|---------------------------|
B|---------------------------|
G|-------5-5----------5-5--7-|
D|---------------------------|
A|-0--0-------0--0--0--------|
E|---------------------------|

      F       C/E      F        C/E
e|---------|------|---------|------|
B|---------|------|---------|------|
G|-------5-|----5-|-------5-|----5-|
D|-3--3----|-2----|-3--3----|-2----|
A|---------|------|---------|------|
E|---------|------|---------|------|


Chorus 1:

Piano:
   C  Dm   F
e|---|---|---|
B|-1-|-3-|-6-|
G|---|---|---|
D|---|---|---|
A|---|---|---|
E|---|---|---|

Guitar:
   F        C        G       Dm
e|---|-------------|---|-------------|
B|---|-------------|---|-------------|
G|---|-5--5--5-5-5-|---|-7--7--7-7-7-|
D|-3-|-5--5--5-5-5-|-5-|-7--7--7-7-7-|
A|-3-|-3--3--3-3-3-|-5-|-5--5--5-5-5-|
E|-1-|-------------|-3-|-------------|

      F       C/E       F      C/E
e|---------|------|---------|------|
B|---------|------|---------|------|
G|---------|------|---------|------|
D|-3--3--3-|-2--2-|-3--3--3-|-2--2-|
A|-3--3--3-|-3--3-|-3--3--3-|-3--3-|
E|-1--1--1-|-0--0-|-1--1--1-|-0--0-|

Piano:
   C  Dm   F
e|---|---|---|
B|-1-|-3-|-6-|
G|---|---|---|
D|---|---|---|
A|---|---|---|
E|---|---|---|

Guitar:
   F        C        G       Dm
e|---|-------------|---|-------------|
B|---|-------------|---|-------------|
G|---|-5--5--5-5-5-|---|-7--7--7-7-7-|
D|-3-|-5--5--5-5-5-|-5-|-7--7--7-7-7-|
A|-3-|-3--3--3-3-3-|-5-|-5--5--5-5-5-|
E|-1-|-------------|-3-|-------------|

      F       C/E       F      C/E
e|---------|------|---------|------|
B|---------|------|---------|------|
G|---------|------|---------|------|
D|-3--3--3-|-2--2-|-3--3--3-|-2--2-|
A|-3--3--3-|-3--3-|-3--3--3-|-3--3-|
E|-1--1--1-|-0--0-|-1--1--1-|-0--0-|


Verse 2:

Piano:
          Am          F
e|------------------|---|
B|----------------2-|---|
G|-------2-----2----|---|
D|----2-----0-------|-3-| x3
A|-0----------------|---|
E|------------------|---|

          Am          F
e|------------------|---|
B|----------------2-|-6-|
G|-------2-----2----|---|
D|----2-----0-------|---|
A|-0----------------|---|
E|------------------|---|


Guitar:
              Am
e|---------------------------|
B|---------------------------|
G|-------5-5----------5-5----|
D|---------------------------|
A|-0--0-------0--0--0------0-|
E|---------------------------|

      F       C/E      F        C/E
e|---------|------|---------|------|
B|---------|------|---------|------|
G|-------5-|----5-|-------5-|----5-|
D|-3--3----|-2----|-3--3----|-2----|
A|---------|------|---------|------|
E|---------|------|---------|------|

              Am
e|---------------------------|
B|---------------------------|
G|-------5-5----------5-5--7-|
D|---------------------------|
A|-0--0-------0--0--0--------|
E|---------------------------|

      F       C/E      F        C/E
e|---------|------|---------|------|
B|---------|------|---------|------|
G|-------5-|----5-|-------5-|----5-|
D|-3--3----|-2----|-3--3----|-2----|
A|---------|------|---------|------|
E|---------|------|---------|------|

              Am
e|---------------------------|
B|---------------------------|
G|-------5-5----------5-5----|
D|---------------------------|
A|-0--0-------0--0--0------0-|
E|---------------------------|

      F       C/E      F        C/E
e|---------|------|---------|------|
B|---------|------|---------|------|
G|-------5-|----5-|-------5-|----5-|
D|-3--3----|-2----|-3--3----|-2----|
A|---------|------|---------|------|
E|---------|------|---------|------|

              Am
e|---------------------------|
B|---------------------------|
G|-------5-5----------5-5--7-|
D|---------------------------|
A|-0--0-------0--0--0--------|
E|---------------------------|

      F       C/E      F        C/E
e|---------|------|---------|------|
B|---------|------|---------|------|
G|-------5-|----5-|-------5-|----5-|
D|-3--3----|-2----|-3--3----|-2----|
A|---------|------|---------|------|
E|---------|------|---------|------|


Chorus 2:

Piano:
   C  Dm   F
e|---|---|---|
B|-1-|-3-|-6-|
G|---|---|---|
D|---|---|---|
A|---|---|---|
E|---|---|---|

Guitar:
   F        C        G       Dm
e|---|-------------|---|-------------|
B|---|-------------|---|-------------|
G|---|-5--5--5-5-5-|---|-7--7--7-7-7-|
D|-3-|-5--5--5-5-5-|-5-|-7--7--7-7-7-|
A|-3-|-3--3--3-3-3-|-5-|-5--5--5-5-5-|
E|-1-|-------------|-3-|-------------|

      F       C/E       F      C/E
e|---------|------|---------|------|
B|---------|------|---------|------|
G|---------|------|---------|------|
D|-3--3--3-|-2--2-|-3--3--3-|-2--2-|
A|-3--3--3-|-3--3-|-3--3--3-|-3--3-|
E|-1--1--1-|-0--0-|-1--1--1-|-0--0-|

Piano:
   C  Dm   F
e|---|---|---|
B|-1-|-3-|-6-|
G|---|---|---|
D|---|---|---|
A|---|---|---|
E|---|---|---|

Guitar:
   F        C        G       Dm
e|---|-------------|---|-------------|
B|---|-------------|---|-------------|
G|---|-5--5--5-5-5-|---|-7--7--7-7-7-|
D|-3-|-5--5--5-5-5-|-5-|-7--7--7-7-7-|
A|-3-|-3--3--3-3-3-|-5-|-5--5--5-5-5-|
E|-1-|-------------|-3-|-------------|

      F       C/E       F      C/E
e|---------|------|---------|------|
B|---------|------|---------|------|
G|---------|------|---------|------|
D|-3--3--3-|-2--2-|-3--3--3-|-2--2-|
A|-3--3--3-|-3--3-|-3--3--3-|-3--3-|
E|-1--1--1-|-0--0-|-1--1--1-|-0--0-|

Piano:
   C  Dm   F
e|-3-|---|---|
B|---|-3-|-6-|
G|---|---|---|
D|---|---|---|
A|---|---|---|
E|---|---|---|

Guitar:
   F        C        G       Dm
e|---|-------------|---|-------------|
B|---|-------------|---|-------------|
G|---|-5--5--5-5-5-|---|-7--7--7-7-7-|
D|-3-|-5--5--5-5-5-|-5-|-7--7--7-7-7-|
A|-3-|-3--3--3-3-3-|-5-|-5--5--5-5-5-|
E|-1-|-------------|-3-|-------------|

      F       C/E       F      C/E
e|---------|------|---------|------|
B|---------|------|---------|------|
G|---------|------|---------|------|
D|-3--3--3-|-2--2-|-3--3--3-|-2--2-|
A|-3--3--3-|-3--3-|-3--3--3-|-3--3-|
E|-1--1--1-|-0--0-|-1--1--1-|-0--0-|

Piano:
   C  Dm   F
e|-3-|---|---|
B|---|-3-|-6-|
G|---|---|---|
D|---|---|---|
A|---|---|---|
E|---|---|---|

Guitar:
   F        C        G       Dm
e|---|-------------|---|-------------|
B|---|-------------|---|-------------|
G|---|-5--5--5-5-5-|---|-7--7--7-7-7-|
D|-3-|-5--5--5-5-5-|-5-|-7--7--7-7-7-|
A|-3-|-3--3--3-3-3-|-5-|-5--5--5-5-5-|
E|-1-|-------------|-3-|-------------|

      F       C/E       F      C/E
e|---------|------|---------|------|
B|---------|------|---------|------|
G|---------|------|---------|------|
D|-3--3--3-|-2--2-|-3--3--3-|-2--2-|
A|-3--3--3-|-3--3-|-3--3--3-|-3--3-|
E|-1--1--1-|-0--0-|-1--1--1-|-0--0-|
Добавлено: 02.04.2016
Другие материалы по этой песне:
  • Аккорды и текст

Страница создана 02.04.2016
http://primanota.ru/blink-182-2/hearts-all-gone-interlude-chords.htm
Привет, Гость.
Предлагаем пройти революционный курс по гитаре.
Подарок от PrimaNota.Ru, забирай!