PrimaNota.ru - самый крупный в мире бесплатный архив песенных текстов, аккордов, табулатур и нот


Blink-182 - The Family Next Door - таба, видео

Регистрация Запомнить меня
Войти через:  Facebook Google Twitter Vk Yandex Mail.ru

Blink-182 - The Family Next Door - таба, видео

Печатать
Просмотров: 50
Created by Thegirlygamer 11

Intro:

e|---------------------------------0-------0-------0-------0-------------------------|
b|-3-2-0---3-2-0---3-2-0---3-2-0-----2-0-----2-0-2---2-0-2---2-0---3-2-0---3-2-0-----|
g|-------2-------2-------2-------2-------2-----------------------2-------2--------2--|
d|-----------------------------------------------------------------------------------|
a|-----------------------------------------------------------------------------------|
e|-----------------------------------------------------------------------------------|

e|-----------------------------0-0-------------------|
b|-3-2-0-------0-0-2-2-2-3-3-3-----3-3-2-2-0-0-------|
g|-------2-2-2---------------------------------2-2---|
d|---------------------------------------------------|
a|---------------------------------------------------|
e|---------------------------------------------------|

Verse:

e|------------------------------------------------------------------------------------|
b|------------------------------------------------------------------------------------|
g|--------------------------------7--7-7-7-7-7-7-7-7-7-7-7-7-7-7-9--9-9-9-9-9-9-9-9-9-|
d|-7--7-7-7-7-7-7-7-7-7-7-7-7-7-7-7--7-7-7-7-7-7-7-7-7-7-7-7-7-7-9--9-9-9-9-9-9-9-9-9-|
a|-7--7-7-7-7-7-7-7-7-7-7-7-7-7-7-5--5-5-5-5-5-5-5-5-5-5-5-5-5-5-7--7-7-7-7-7-7-7-7-7-|
e|-5--5-5-5-5-5-5-5-5-5-5-5-5-5-5-----------------------------------------------------|
pm    . . . . . . . . . . . . . .    . . . . . . . . . . . . . .    . . . . . . . . .

e|--------------------------------------------|
b|--------------------------------------------|
g|-9-9-9-9-9-7--7-7-7-7-7-7-7-7-7-7-7-7-7-7---|
d|-9-9-9-9-9-7--7-7-7-7-7-7-7-7-7-7-7-7-7-7---|
a|-7-7-7-7-7-5--5-5-5-5-5-5-5-5-5-5-5-5-5-5---|
e|--------------------------------------------|
pm   . . . . .    . . . . . . . . . . . . . .

Chorus:

e|-----------------------------------|
b|-----------------------------------|
g|---------7-7-7-7-9-9-9-9-7-7-7-7---|
d|-7-7-7-7-7-7-7-7-9-9-9-9-7-7-7-7---|
a|-7-7-7-7-5-5-5-5-7-7-7-7-5-5-5-5---|
e|-5-5-5-5---------------------------|

Interlude:

e|---------------------------------------------------------|
b|---------------------------------------------------------|
g|---------------7~------------9~------------7~------------|
d|-7~------------7~------------9~------------7~------------|
a|-7~------------5~------------7~------------5~------------|
e|-5~------------------------------------------------------|

Outro:

e|--------|
b|--------|
g|--------|
d|-7~-----| Let Ring
a|-7~-----|
e|-5~-----|


Song Order:

Intro: 1x
Verse: 2x
Chorus: 4x
Verse: 2x
Chorus: 4x
Interlude: 2x
Chorus:4x
Outro: 1x
Добавлено: 11.04.2016
Другие материалы по этой песне:
  • Аккорды и текст

Страница создана 11.04.2016
http://primanota.ru/blink-182-2/family-next-door-chords.htm
Привет, Гость.
Предлагаем пройти революционный курс по гитаре.
Подарок от PrimaNota.Ru, забирай!