PrimaNota.ru - самый крупный в мире бесплатный архив песенных текстов, аккордов, табулатур и нот


Blink-182 - Enema Of The State (ver 3) (album) - таба, видео

Регистрация Запомнить меня
Войти через:  Facebook Google Twitter Vk Yandex Mail.ru

Blink-182 - Enema Of The State (ver 3) (album) - таба, видео

Печатать
Просмотров: 64
-------------------------------------------------------------------------------
Enema Of The State - BLINK 182
-------------------------------------------------------------------------------

I've already put a few songs of the album up here, but I've tabbed out the whole
album, I think it's all correct! So please rate or make comments! ENJOY!

1. DUMPWEED
2. DON'T LEAVE ME
3. ALIENS EXIST
4. GOING AWAY TO COLLEGE
5. WHAT'S MY AGE AGAIN
6. DYSENTERY GARY
7. ADAM'S SONG
8. ALL THE SMALL THINGS
9. THE PARTY SONG
10. MUTT
11. WENDY CLEAR
12. ANTHEM

Key:
** = Palm Mute
~~ = Let Ring
XX = Left Hand Damping
<< = Pick Slide
b = Bend String
h = Hammer On
p = Pull Off

1. DUMPWEED

INTRO RIFF 1!
e|------------------------------------------------------------------------|
B|------------------------------------------------------------------------|
G|------------------------------------------------------------------------|
D|---6-6h7p6------------6-6h7p6----------6-6h7p6------------6-6h7p6-9-----|
A|---------------9-7----------------9--0-------------9-7--0-------------9-|
E|-0---------7-5------0---------7-5--------------7-5------------------7---|

INTRO RIFF 2!
e|-4-0---4-0---2-0---2-0---4-0---4-0---5-0---5-0----|
B|-----0-----0-----0-----0-----0-----0-----0-----0--|
G|--------------------------------------------------| 
D|--------------------------------------------------|
A|--------------------------------------------------|
E|--------------------------------------------------|

VERSE!
e|------------------------------------------------------------|
B|------------------------------------------------------------|
G|---------444444--------444444--2-22222-444444-222222-444444-| 
D|-2-22222-444444-222222-444444--2-22222-444444-222222-444444-|
A|-2-22222-222222-222222-222222--0-00000-222222-000000-222222-|
E|-0-00000--------000000--------------------------------------|
     ***** ****** ****** ******    ***** ****** ****** ******

CHORUS!
e|----------------------------------------------------------------------|
B|----------------------------------------------------------------------|
G|----------44444444----------44444444----------44444444---------4----4-|
D|-22222222-44444444-77777777-44444444-22222222-44444444-7777777-4----4-|
A|-22222222-22222222-77777777-22222222-22222222-22222222-7777777-2----2-|
E|-00000000----------55555555----------00000000----------5555555--------|

INTERLUDE!
e|-----------------------------------------------------------------------|
B|-----------------------------------------------------------------------|
G|---------44444444----------4444444-2222222-44444444-22222222-44444444--|
D|-2222222-44444444-22222222-4444444-2222222-44444444-22222222-44444444--|
A|-2222222-22222222-22222222-2222222-0000000-22222222-00000000-22222222--|
E|-0000000----------00000000---------------------------------------------|
   ******* ******** ******** ******* ******* ******** ******** ********

SOLO THINGY!
e|-4-0---0---2-0---0---4-0---0---5-0---0-2--|
B|-----0---0-----0---0-----0---0-----0------|
G|------------------------------------------|
D|------------------------------------------|
A|------------------------------------------|
E|------------------------------------------|
* * * * * * * * * * * * * * * * * * * *
INTRO 1 x1
INTRO 2 x2
VERSE x2
INTRO 1 x1
CHORUS x1
INTRO 2 x2
VERSE x1
INTRO 1 x1
CHORUS x2
INTERLUDE x2
SOLO THINGY x4

2. DON'T LEAVE ME

INTRO
e|-XXX-----XXX-----XXX----------------|
B|-XXX-----XXX-----XXX----------------|
G|-XXX-----XXX-777-XXX-4444-7777-9999-|
D|-XXX-777-XXX-777-XXX-4444-7777-9999-|
A|-XXX-777-XXX-555-XXX-2222-5555-7777-|
E|-XXX-555-XXX-----XXX----------------|

VERSE

e|-----|
B|-----|
G|-----| LET RING
D|-7~--|
a|-7~--|
E|-5~--|

CHORUS!

e|-XXX-------------------------------------------|
B|-XXX-------------------------------------------|
G|-XXX------4444-7777-9999-------4444-7777-9999--| 
D|-XXX-7777-4444-7777-9999--7777-4444-7777-9999--|
A|-XXX-7777-2222-5555-7777--7777-2222-5555-7777--|
E|-XXX-5555-----------------5555-----------------|


INTERLUDE!
e|------------------------------------------------|
B|------------------------------------------------|
G|------2-----2-----2-----2-----2-----2-----2-----| Play as many times 
D|----2-----2-----2-----2-----2-----2-----2-------| as needed!
A|--0-----0-----0-----0-----0-----0-----0---------|
E|------------------------------------------------|
   "Let's try this one more time with feelings..."


OUTRO!
e|---X---------|
B|---X---------|
G|---X---------|
D|-7-X----7~---|
A|-7-X----7~---|
E|-5-X----5~---|

INTRO x2
VERSE x1
CHORUS x2
INTRO x2
VERSE x1
CHORUS x2
INTERLUDE (play as many times as needed)
CHORUS x2
VERSE x1
OUTRO x1

3. ALIENS EXIST

 INTRO!
e|------------------------|
B|------------------------|
G|-4-4444444444444-4-~~---|
D|-4-4444444444444-x-~~---|
A|-2-2222222222222-2-~~---|
E|------------------------|
     *************

PRE-VERSE!
e|------------------------------------|
B|------------------------------------|
G|-----44444--------------------------|
D|-----44444--22222--666666--222222---|
A|-----22222--22222--666666--222222---|
E|-<<<--------00000--444444--000000---|

VERSE RIFF 1!
e|-------------------------------------|
B|-------------------------------------|
G|-4-444444----------------------------| 
D|-4-444444-4444444-6666666-22222222---|
A|-2-222222-4444444-6666666-22222222---|
E|----------2222222-4444444-00000000---|
     ****** ******* ******* ********

VERSE RIFF 2!
When The Lyrics "I know the CIA would say...."
e|-------------------------------------------|
B|-------------------------------------------|
G|-44444444-66666666-------------------------|
D|-44444444-66666666-6666666-222222222-------|
A|-22222222-44444444-6666666-222222222-------|
E|-------------------4444444-000000000-------|
   ******** ******** ******* *********

CHORUS!
e|---------------------------------------------------------------------------|
B|---------------------------------------------------------------------------|
G|-4444444444444444------------------444444444444444-------------------------|
D|-4444444444444444-4444444444444444-444444444444444-44444444444444444-------|
A|-2222222222222222-4444444444444444-222222222222222-44444444444444444-------|
E|------------------2222222222222222-----------------22222222222222222-------|
CHORUS 2!
e|--------------------------------------------------|
B|--------------------------------------------------|
G|--------------------------------------------------|
D|-1-1---1-1---1-1---1-1---2-2---2-2---2-2---2-2----|
A|-----2-----2-----2-----2-----2-----2-----2-----2--|
E|--------------------------------------------------|
* * * * * * * * * * * * * * * * * * * * * * * *

POST CHORUS!
   "I'm not like you guys...."
e|-------------------------------------|
B|-------------------------------------|
G|-------------------4~~---------------|
D|-4~~------2~~------4~~---4~~-------2-|
A|-4~~------2~~------2~~---4~~-------2-|
E|-2~~------0~~------------2~~-------0-|


THEN THIS SOLO TYPE THING
e|--------------------------------------------------------|
B|--------------------------------------------------------|
G|-44444444444444-888888888-6666666666-9999999-888888888--|
D|-xxxxxxxxxxxxxx-xxxxxxxxx-xxxxxxxxxx-xxxxxxx-xxxxxxxxx--|
A|-22222222222222-666666666-4444444444-7777777-666666666--|
E|--------------------------------------------------------|

INTERLUDE!
  "Dark and scary......."
e|------------------------------------------------------------|
B|------------------------------------------------------------|
G|--------------------------------------444444444-66666666666-| 
D|-6666666666-444444444444-222222222222-444444444-66666666666-|
A|-6666666666-444444444444-222222222222-222222222-44444444444-|
E|-4444444444-222222222222-000000000000-----------------------|

OUTRO!
e|-------------------------------------|
B|-------------------------------------|
G|-------------4~~-----------------4~--|
D|-4~~---2~~---4~~---4~~----2~~----4~--|
A|-4~~---2~~---2~~---4~~----2~~----2~--|
E|-2~~---0~~---------2~~----0~~--------|

INTRO x1
PRE VERSE x2
VERSE 1 x2
VERSE 2 x1
VERSE 1 x1
CHORUS 1 x1
CHORUS 2 x2
POST CHORUS x1
PRE VERSE x2
VERSE 1 x2
VERSE 2 x1
VERSE 1 x1
CHORUS 1 x1
CHORUS 2 x2
POST CHORUS x1
SOLO THINGY x1
INTERLUDE x2
CHORUS 1 x1
CHORUS 2 x2
OUTRO x1

4. GOING AWAY TO COLLEGE

For this you need to put a capo on the 2nd fret to play along with the cd
it's not necessary but to play it like they do on the cd play it with the 
capo on it!  Only because I couldn't figure out the intro without the capo
if you know how to play that intro just move all the chords 2 frets up and
hey presto!

INTRO
e|-------------------------------------------|
B|-------------------------------------------|
G|-6666-4444-6666-4444-6666-4444-6666-4444---|
D|-7777-7777-7777-7777-0000-0000-0000-0000---|
A|-0000-0000-0000-0000-----------------------|
E|-------------------------------------------|

INTERLUDE
e|---------------------------------------------------------------|
B|---------------------------------------------------------------|
G|-------------6-------------6-------------6---------------------|
D|------7-------------7-------------7-------------9------9-------|
A|------------------------------5-5----5-5----7-7----7-7---------|
E|--5-5----5-5----5-5----5-5-------------------------------------|

VERSE 1
e|-----------|
B|-----------|
G|-----------|
D|--7~~------|
A|--7~~------|
E|--5~~------|

PRE CHORUS

e|---------------------------------------------------|
B|---------------------------------------------------|
G|----------------7-7-7-7-7-7-7-7--9-9-9-9-9-9-9-9---|
D|--7-7-7--7-7-7--7-7-7-7-7-7-7-7--9-9-9-9-9-9-9-9---|
A|--7-7-7--7-7-7--5-5-5-5-5-5-5-5--7-7-7-7-7-7-7-7---|
E|--5-5-5--5-5-5-------------------------------------|

CHORUS
e|------------------------------------------------------------------|
B|------------------------------------------------------------------|
G|--6--6-6-6-6-6-6--7--7-7-7-7-7-7----------------------------------|
D|--x--x-x-x-x-x-x--x--x-x-x-x-x-x--7--7-7-7-7-7-7--2--2-2-2-2-2-2--|
A|--4--4-4-4-4-4-4--5--5-5-5-5-5-5--7--7-7-7-7-7-7--2--2-2-2-2-2-2--|
E|----------------------------------5--5-5-5-5-5-5--0--0-0-0-0-0-0--|

VERSE 3
e|------------------------------------------------------------|
B|------------------------------------------------------------|
G|------------------------------------------------7-----------|
D|------7------7------7------7------7------7-------------7----|
A|------------------------------5-5----5-5----7-7----7-7------|
E|--5-5----5-5----5-5----5-5----------------------------------|
    * *    * *    * *    * *    * *    * *    * *    * * 

INTRO x2
INTERLUDE x2
VERSE 1
PRE CHOURUS x2
INTERLUDE x2
VERSE 1
PRE CHORUS x2
CHORUS x4
INTERLUDE x2
VERSE 2 x2
Pre CHORUS x2
CHORUS x4
INTRO x2
CHORUS x4

5. WHAT'S MY AGE AGAIN?


INTRO PART 1!
e|---------------------------------------------|
B|-----11--------11---------11----------11-----|
G|---11--11---11----11---11----11----11----11--|
D|-9-------------------------------------------| 
A|----------9----------------------------------|
E|---------------------9----------11-----------|

INTRO PART 2!
e|---------------------------------------------|
B|------11---------11---------11---------11----|
G|---11----11---11----11---11----11---11----11-|
D|-9-------------------------------------------|
A|------------9--------------------------------|
E|-----------------------9----------9----------|

CHORUS!
e|--------------------------------------------------------------------|
B|--------------------------------------------------------------------|
G|----66-88-44----66-88-44----66-88-44----66-888888888-666666666-4~~--|
D|-4X-66-88-44-4X-66-88-44-4X-66-88-44-4X-66-888888888-666666666-4~~--|
A|-4X-44-66-22-4X-44-66-22-4X-44-66-22-4X-44-666666666-444444444-2~~--|
E|-2X----------2X----------2X----------2X-----------------------------|

VERSE!
e|---------------------------|
B|---------------------------|
G|-44444-------66666-88888---|
D|-44444-44444-66666-88888---|
A|-22222-44444-44444-66666---|
E|-------22222---------------|
   ***** ***** ***** *****

VERSE PART 2
e|--------------------------------------|
B|--------------------------------------|
G|-44444-------66666666666-4444444444---|
D|-44444-44444-66666666666-4444444444---|
A|-22222-44444-44444444444-2222222222---|
E|-------22222--------------------------|
   ***** ***** *********** **********

INTERLUDE (not to sure about the last part)
just mess around with the notes that are there and you'll get it!
e|------------------------------------------------------------------------|
B|---11----11------11----11-----------------------------------------------|
G|------11----11------11----11--------------------------------11-------11-|
D|-9-------------9---------------8h9---8h9---8h9---8h9----8--------8--8---|
A|-----------------------------99----99----99----99-----9---9----9---9----|
E|------------------------------------------------------------------------|

e|--------------------|
B|--------------------|
G|-------11-------11--|
D|---8--------8-------|
A|-9---9----9---9-----|
E|--------------------|

INTRO 1 x8
INTRO 2 x1
CHORUS x1
INTRO 2 x1
VERSE 1 x3
VERSE 2 x1
CHORUS x1
INTERLUDE x1
CHORUS x3

6. DYSENTERY GARY

INTRO
e|----------------------------------------|
B|----------------------------------------|
G|----------------------------------------|
D|-444-000-555-444---------444------------|
A|-----------------555---------000-444----|
E|---------------------333----------------|

INTRO 2
e|--------------------------------------------|
B|--------------------------------------------|
G|-77777777777777777--------------------------|
D|-77777777777777777--5555555--77777777-------|
A|-55555555555555555--5555555--77777777-------|
E|--------------------3333333--55555555-------|

VERSE
e|----------------------------------------------------------|
B|----------------------------------------------------------|
G|-7-777777----7-777777-------------------------------------|
D|-7-777777-4--7-777777-4--5-55555-5--7-77777-7-7777-7------|
A|-5-555555-5--5-555555-5--5-55555-5--7-77777-7-7777-7------|
E|-------------------------3-33333-3--5-55555-5-5555-5------|
     ******      ******      *****      *****   ****
INTERLUDE 
e|---------------------------------------------|
B|-33333333333333333--3333333--22222222--------|
G|-22222222222222222--0000000--22222222--------|
D|-00000000000000000-----------22222222--------|
A|---------------------------------------------|
E|---------------------------------------------|
or
e|---------------------------------------------|
B|---------------------------------------------|
G|-77777777777777777---------------------------|
D|-77777777777777777--5555555--77777777--------|
A|-55555555555555555--5555555--77777777--------|
E|--------------------3333333--55555555--------|

PRE CHORUS
e|---------------------------------------------|
B|---------------------------------------------|
G|-77777777777777777---------------------------|
D|-77777777777777777--5555555--77777777--------|
A|-55555555555555555--5555555--77777777--------|
E|--------------------3333333--55555555--------|

CHORUS
e|-15--14------------------------|
B|---------15--------------------|
G|-------------12-12-12----------|
D|-------------------------------|
A|-------------------------------|
E|-------------------------------|

BRIDGE
e|--------------------------------------------------------|
B|--------------------------------------------------------|
G|--------------------------------------------------------|
D|--4-5-4--2-------4-5-4--2---0---4-5-4--2-------4-5-4--5-|
A|--5----------0---5--------0-----5----------0---5------5-|
E|-----------3-----------------------------3------------3-|

INTRO x4
INTRO 2 x2
VERSE x2
INTERLUDE
PRE CHORUS 
CHORUS x6
INTRO x2
INTRO 2 x1
VERSE x2
INTERLUDE x2
PRE CHORUS
CHORUS x6
BRIDGE
CHORUS x6
INTRO 


7 . ADAM'S SONG

INTRO
e|--------------------------------------------------|
B|--------------------------------------------------|
G|--------------------------------------------------|
D|---4-0---4-0---4-0---4-0---4-0---4-0---4-0---4-0--|
A|-2-----2-----0-----0------------------------------|
E|-------------------------3-----3-----0-----3------|

VERSE
e|-------------------------------------|
B|-------------------------------------|
G|-7777777-----------------------------|
D|-7777777-5555555-99999999-55555555---|
A|-5555555-5555555-99999999-55555555---|
E|---------3333333-77777777-33333333---|
   ******* ******* ******** ********
POST VERSE
e|---------------------------------------------------|
B|---------------------------------------------------|
G|-----0-----0-----0-----0---------------------------|
D|---7-----7-----9-----9-----4-0---4-0---4-0---4-0---|
A|-5-----5-----7-----7-----2-----2-------------------|
E|-------------------------------------3-----3-------|

PRE-CHORUS
e|------------------------------------------------------------------------|
B|------------------------------------------------------------------------|
G|-77777777777777--999999999999999-4444444444444444--121212121212121212---|
D|-xxxxxxxxxxxxxx--xxxxxxxxxxxxxxx-xxxxxxxxxxxxxxxx--xxxxxxxxxxxxxxxxxx---|
A|-55555555555555--777777777777777-2222222222222222--101010101010101010---|
E|------------------------------------------------------------------------|

e|------------------------------------------------------------------------|
B|------------------------------------------------------------------------|
G|-111111111111111--1212121212121212-111111111111111--121212121212121212--|
D|-xxxxxxxxxxxxxxx--xxxxxxxxxxxxxxxx-xxxxxxxxxxxxxxx--xxxxxxxxxxxxxxxxxx--|
A|-999999999999999--1010101010101010-999999999999999--101010101010101010--|
E|------------------------------------------------------------------------|
CHORUS
e|--------------------------------------------------------------|
B|--------------------------------------------------------------|
G|-77777777777--9999999999999-----------------------------------|
D|-77777777777--9999999999999--9999999999999--555555555555555---|
A|-55555555555--7777777777777--9999999999999--555555555555555---|
E|-----------------------------7777777777777--333333333333333---|

SOLO THINGY! 
I'm not too sure about this cause it's all on a piano! And I can't really hear 
what the guitar is play! But if anyone know please tell me or tell me if this 
is right or whatever!
e|---------------------|
B|---------------------|
G|---0--0---0--0---0---|
D|--4--4-4-4--4-4-4----|
A|-5--5---5--5---5-----|
E|---------------------|

e|---------------------|
B|---------------------|
G|---7--7---7--7---7---|
D|--0--0-0-0--0-0-0----|
A|-5--5---5--5---5-----|
E|---------------------|

INTRO x2
VERSE x4
POST VERSE x2
PRE-CHORUS x1
CHORUS x2
INTRO x2
VERSE x4
POST VERSE x2
PRE-CHORUS x1
CHORUS x2
SOLO THINGY (repeat as necessary) 
CHORUS x4

8. ALL THE SMALL THINGS

INTRO!
e|-------------------------------------XXXXXX-----|
B|---------------666666666-------------XXXXXX-----|
G|------55555555-555555555-------------XXXXXX-----|        
D|-5-3- 55555555-555555555-5555555555-3XXXXXX-3---|
A|-5-3--33333333-333333333-5555555555-3XXXXXX-3---|
E|-3-1---------------------3333333333-1XXXXXX-1---|
VERSE!
e|---------------------------------------|
B|---------------------------------------|
G|-5555555-------------------------------|
D|-5555555-55555555-333333333-555555555--|
A|-3333333-55555555-333333333-555555555--|
E|---------33333333-111111111-333333333--|
   ******* ******** ********* *********

POST VERSE!
e|---------|
B|---------|
G|-5~~-----|
D|-5~~-----|
A|-3~~-----|
E|---------|

CHORUS!
e|----------------------------------------|
B|----------------------------------------|
G|-5555555555555555-----------------------|
D|-5555555555555555-5555555555-333333333--|
A|-3333333333333333-5555555555-333333333--|
E|------------------3333333333-111111111--|

POST CHORUS!
e|-------------------------------------------XXXXXXXXX-----|
B|-------------------------------------------XXXXXXXXX-----|
G|-55555555-10101010--9999999999-7777777777-5XXXXXXXXX5----|
D|-xxxxxxxx-xxxxxxxxx-xxxxxxxxxx-xxxxxxxxxx-xXXXXXXXXXx----|
A|-33333333-888888888-7777777777-5555555555-3XXXXXXXXX3----|
E|---------------------------------------------------------|

INTERLUDE 1
e|------------------------------|
B|------------------------------|
G|-5-~~~--------5-------7-------|
D|-x------------3-------5-------|
A|-3-~~~--------3-------5-------|
E|------------------------------|
                  clean

INTERLUDE 2 (album)
e|---------------------------------------|
B|---------------------------------------|
G|-5-5-5-5-5-5-5-5-5-4-4-4-4-------------|
D|--5-5-5-5-5-5-5-5-5-5-5-5-5------------|
A|---------------------------------------|
E|---------------------------------------|
   **************************
INTERLUDE 2 (live)

e|------------------------------------|
B|------------------------------------|
G|-5-5-5-5-4-4-4-4-7-7-7-7-7----------|
D|--5-5-5-5-5-5-5-5-5-5-5-5-5---------|
A|------------------------------------|
E|------------------------------------|
   **************************
OUTRO!
e|---------------------------------XXXX----XXX-----|
B|------------666666666------------XXXX----XXX-----|
G|---55555555-555555555------------XXXX----XXX-----|        
D|-- 55555555-555555555-5555555555-XXXX-3--XXX-3---|
A|---33333333-333333333-5555555555-XXXX-3--XXX-3---|
E|----------------------3333333333-XXXX-1--XXX-1---|

INTRO x2
VERSE x4
POST VERSE x1
CHORUS x2
POST CHORUS x2
VERSE x2
POST VERSE x1
CHORUS x2
POST VERSE x1
INTERLUDE (either one and how long you feel like playing it for!!)
CHORUS x2
OUTRO x2

9. THE PARTY SONG

VERSE/CHORUS
e|----------------------------------------------------|
B|----------------------------------------------------|
G|------------9-9-9-9-9--6-6-6-6-6--9-9-9-9-9---------|
D|-9-9-9-9-9--9-9-9-9-9--6-6-6-6-6--9-9-9-9-9---------|
A|-9-9-9-9-9--7-7-7-7-7--4-4-4-4-4--7-7-7-7-7---------|
E|-7-7-7-7-7------------------------------------------|

BRIDGE
e|---------------------------------------------------|
B|---------------------------------------------------|
G|---------------------------------------------------|
D|---------------------------------------------------|
A|-9-----7--6-------7--6-------7--6------------------|
E|-------------7----------7----------7---7-9---------|

INTERLUDE
e|-----------------------------------------|
B|-----------------------------------------|
G|---------6666666-9999999-11111111--------|
D|-9999999-6666666-9999999-11111111--------|
A|-9999999-4444444-7777777-9999999---------|
E|-7777777---------------------------------|
   ******* ******* ******* ********

CHORUS 2
e|--------------------|
B|--------------------|
G|--------------------|
D|---9----------------|
A|-------9-7-6--------|
E|-7---7--------------|
I think Tom plays this during the "Nah Nah" bit But not to sure but 
you can just play the Chorus chords, which are the same as the verse!

VERSE/CHORUS x 4 (muted)
VERSE/CHORUS x 4
BRIDGE
INTERLUDE x 2
VERSE/CHORUS x 4(with chorus 2 over it!)
VERSE/CHORUS x 4
BRIDGE
INTERLUDE x 2
VERSE/CHORUS x 6 (again with chorus 2 over it) 

10. MUTT

INTRO
e|---------------------------------|
B|---2-----2-----2-----2-----------|
G|-2-----2-----2-----2-------------|
D|-----2-----2-----2-----2---------|
A|---------------------------------|
E|---------------------------------|

VERSE
e|-----------------------------------------------------------|
B|-----------------------------------------------------------|
G|-----2-----2-----2h4-----2h4-----6-----6-------------------|
D|---------------------------------------------9-----9-------|
A|-0-0---0-0---0-0-----0-0-----4-4---4-4---7-7---7-7---------|
E|-----------------------------------------------------------|
   * *   * *   * *     * *     * *   * *   * *   * *

PRE CHORUS
e|------------------------------------------------|
B|------------------------------------------------|
G|------------------------------------------------|
D|-777777777777777--4444444444--22222222222-------|
A|-777777777777777--4444444444--22222222222-------|
E|-555555555555555--2222222222--00000000000-------|

PRE CHORUS 2
e|-----------------------------------------|
B|-----------------------------------------|
G|-77777777777777777777--999999999999------|
D|-77777777777777777777--999999999999------|
A|-55555555555555555555--777777777777------|
E|-----------------------------------------|

CHORUS
e|-------------------------------------------------------|
B|-------------------------------------------------------|
G|-------------------------------------------------------|
D|-7-77777777-7-777777777--7-77777777--7-7---7-7---------|
A|-x-xxxxxxxx-x-xxxxxxxxx--x-xxxxxxxx--5-5---4-4---------|
E|-5-55555555-5-555555555--7-77777777--------------------|

BRIDGE
e|-----------------------------|
B|-----------------------------|
G|--------4-4----7-7--6-6------|
D|-7-7----4-4----7-7--6-6------|
A|-7-7----2-2----5-5--4-4------|
E|-5-5-------------------------|
   * *    * *    * *  * * 

OUTRO
e|-------------------------------------------------------------|
B|-------------------------------------------------------------|
G|--------4-4----7-7--6-6----------4-4----7-7--6-6-------------|
D|-7-7----4-4----7-7--6-6---7-7----4-4----7-7--6-6--7~~--------|
A|-7-7----2-2----5-5--4-4---7-7----2-2----5-5--4-4--7~~--------|
E|-5-5----------------------5-5---------------------5~~--------|

INTRO x 4
VERSE x 2
PRE CHORUS x 2
PRE CHORUS 2
CHORUS x 6
INTRO x 4
VERSE x 2
PRE CHORUS x 2
PRE CHORUS 2
CHORUS x 6
BRIDGE x 2
INTRO x 2
CHORUS x 4
OUTRO

11. WENDY CLEAR

The rhythm for this is a bit awquard so I've just put it down as best as I can!
But it's easy to work out!

INTRO
e|--------------------|
B|--------------------|
G|--------------------|
D|-----5-----0--3--2--|
A|--3-----3-----------|
E|--------------------|

VERSE
e|-------------------------------------------------------|
B|-------------------------------------------------------|
G|-5555555555555555--------------------------------------|
D|-5555555555555555-55-333333333-777777-3333333-55-------|
A|-3333333333333333-55-333333333-777777-3333333-55-------|
E|------------------33-111111111-555555-1111111-33-------|

PRE CHORUS
e|---------------------------------------|
B|---------------------------------------|
G|-55555555555---------------------------|
D|-55555555555-5555555-33333333----------|
A|-33333333333-5555555-33333333----------|
E|-------------3333333-11111111----------|

CHORUS
e|--------------------------------------------------------------------|
B|--------------------------------------------------------------------|
G|-5555555555-------------------5555555-------------------------------|
D|-5555555555-77777777-33333333-5555555-555555555-77777777-33333333---|
A|-3333333333-77777777-33333333-3333333-555555555-77777777-33333333---|
E|------------55555555-11111111---------333333333-55555555-11111111---|

VERSE 2
e|-----------------|
B|-----------------|
G|-5~~-------------|
D|-5~~-------------|
A|-3~~-------------|
E|-----------------|

BRIDGE
e|-----------------------------------|
B|-----------------------------------|
G|-5555555--------55-----------------|
D|-5555555--77-33-55-55-77-33--------|
A|-3333333--77-33-33-55-77-33--------|
E|----------55-11----33-55-11--------|
            ** ** ** ** ** **

ENDING
e|----------------------------------------------------------------|
B|----------------------------------------------------------------|
G|-555555555------------------55555555----------------------5~~---|
D|-555555555-55555555-3333333-55555555-55555555-3333333-5-3-5~~---|
A|-333333333-55555555-3333333-33333333-55555555-3333333-5-3-3~~---|
E|-----------33333333-1111111----------33333333-1111111-3-1-------|

INTRO x8
VERSE x2
PRE CHORUS x2
CHORUS
INTRO x6
VERSE 2
PRE CHORUS x2
CHORUS
BRIDGE x2
INTRO x8
CHORUS (clean)
ENDING

12. ANTHEM

INTRO/VERSE
e|---------------------------------------------|
B|-----------4444-4444-------------------------|
G|-4444-4444-4444-4444-------------------------|
D|-4444-4444-4444-4444-2222-4444-2222-4444-----|
A|-2222-2222-2222-2222-2222-4444-2222-4444-----|
E|---------------------0000-2222-0000-2222-----|

e|------------------------------------|
B|------------------------------------|
G|------------------------------------|
D|-666666-444444-222222-4444444-------|
A|-666666-444444-222222-4444444-------|
E|-444444-222222-000000-2222222-------|


e|------------------------|
B|------------------------|
G|-4444-4444-4444---------|
D|-4444-4444-4444--2------|
A|-2222-2222-2222--2------|
E|-----------------0------|

e|--------------------------------------XXXX-----|
B|--------------------------------------XXXX-----|
G|-444444444----------------------------XXXX-----|
D|-444444444-2222222-66666666-444444444-XXXX-----|
A|-222222222-2222222-66666666-444444444-XXXX-----|
E|-----------0000000-44444444-222222222-XXXX-----|

e|-----------------------------|
B|-----------------------------|
G|-----------------------------|
D|-1---4---1------1------1-----|
A|---2---------2----2-4------2-|
E|-----------0-------------0---|

INTRO/VERSE x3
CHORUS x4
INTERLUDE 
INTRO/VERSE x2
CHORUS x4
BRIDGE x3
SOLO x2
pick slide
CHORUS x4
BRIDGE x3
SOLO

Well that's it the whole album! Enjoy and please rate or e-mail if it's any
good or if it's bad or whatever! EASY NOW! funkeymonkey10@hotmail.com

===============================================================================
Добавлено: 03.03.2016
Другие материалы по этой песне:
  • Аккорды и текст

Страница создана 03.03.2016
http://primanota.ru/blink-182-2/enema-of-state-ver-3-album-chords.htm
Привет, Гость.
Предлагаем пройти революционный курс по гитаре.
Подарок от PrimaNota.Ru, забирай!