PrimaNota.ru - самый крупный в мире бесплатный архив песенных текстов, аккордов, табулатур и нот


Blink-182 - Enema Of The State (ver 2) (album) - таба, бас-таба, видео

Регистрация Запомнить меня
Войти через:  Facebook Google Twitter Vk Yandex Mail.ru

Blink-182 - Enema Of The State (ver 2) (album) - таба, бас-таба, видео

Печатать
Просмотров: 74
 ---------------------------------------------------------------------------------
|                                     Blink 182                                    |
|                         Enema Of The State | Tab Book                            |
|     Compiled and Edited by Rishesh Singh   |  Sheesh@attbi.com                   |
  ---------------------------------------------------------------------------------

Note: These tabs are not official, and are only for educational purposes.

I did this like 2 years ago but never submitted it for some reason...it should be
right and i'm too lazy to check it.

------------------------------------------------------------------------------------
Tracks:
01 - Dumpweed
02 - Don't Leave Me
03 - Aliens Exist
04 - Going Away To College
05 - What's My Age Again
06 - Dysentary Gary
07 - Adam's Song
08 - All The Small Things
09 - The Party Song
10 - Mutt
11 - Wendy Clear
12 - Anthem
------------------------------------------------------------------------------------ 
Title  : Dumpweed

Intro Part 1:
E:----------------------------------
B:----------------------------------
G:----------------------------------
D:--6-6h7p6-----4------6-6h7p6-----4
A:----------------------------------
E:0---------7-5---5--0--------7-5---

Intro Part 1:
E:--------------------------------------
B:--------------------------------------
G:--------------------------------------
D:--6-6h7p6------4--------6-6h7p6--9----
A:0-----------------0-0--------------0-9
E:----------7-5-------------------------

Intro Part 2:
E:-4p0--4p0--2p0--2p0--4p0--4p0--5p0--5p0----------
B:-------------------------------------------------
G:-------------------------------------------------
D:-------------------------------------------------
A:-------------------------------------------------
E:-------------------------------------------------

Verse:
E:---------------------------------------------------------
B:---------------------------------------------------------
G:-----------44444------------44444--2222222--44444--222222
D:222222222--44444--22222222--44444--2222222--44444--222222
A:222222222--22222--22222222--22222--0000000--22222--000000
E:000000000---------00000000-------------------------------

Outro
E:-4p0---0----2p0---0----4p0----0-----5p0----0--2------
B:-----0---0------0---0-------0---0-------0------------
G:-----------------------------------------------------
D:-----------------------------------------------------
A:-----------------------------------------------------
E:-----------------------------------------------------
(P.M...................................................)

------------------------------------------------------------------------------------
Title  : Don't Leave Me


Riff A:

E----------------------------------------------------------------
B----------------------------------------------------------------
G--------------xxx7-7-77--------------7-77/9-99------------------
D--xxx7-7-77---xxx7-7-77---xxx9-9-99--7-77/9-99------------------
A--xxx7-7-77---xxx5-5-55---xxx9-9-99--5-55/7-77------------------
E--xxx5-5-55---------------xxx7-7-77-----------------------------

Riff B:

E--------------------------------------------------------------
B--------------------------------------------------------------
G------------------7-77-7--9-99-9------------------------------
D--7-77-7--9-99-9--7-77-7--9-99-9------------------------------
A--7-77-7--9-99-9--5-55-5--7-77-7------------------------------
E--5-55-5--7-77-7----------------------------------------------

Verse:


E-------------------------------------------------------------
B-------------------------------------------------------------
G----------Bass-----------------------------------------------
D-7--------Plays------------------------7-77-7-77-7-77-7------
A----------Here-----------------------------------------------
E-5-------------------------------------5-55-5-55-5-55-5------


Bass Solo (for guitarists palm mute it):
E------------------------------
B------------------------------
G------------------------------
D------------------------------
A-0-0-0-0----7-7-7-7---5-5-5-5-
E------------------------------

------------------------------------------------------------------------------------
Title  : Aliens Exist

Verse (2x)  What if people knew..... 

E--------------------------------------------------------
B--------------------------------------------------------
G-4-4-4-4------------------------------------------------
4-4-4-4-4---4-4-4-6--6-6-6-6--2-2-2-2--------------------
A-2-2-2-2---4-4-4-4--6-6-6-6--2-2-2-2--------------------
E-----------2-2-2-2--4-4-4-4--0-0-0-0--------------------


     (2x)  I know the CIA would say...... 
E-------------------------------------------------------
B-------------------------------------------------------
G-4-4-4-4--6-6-6-6--------------------------------------
D-4-4-4-4--6-6-6-6--6-6-6-6--2-2-2-2--------------------
A-2-2-2-2--4-4-4-4--6-6-6-6--2-2-2-2--------------------
E-------------------4-4-4-4--0-0-0-0--------------------

 
    (2x) 

E-------------------------------------------------------
B-------------------------------------------------------
G-4-4-4-4----------------------------------------------- 
D-4-4-4-4--2-2-2-2--6-6-6-6--2-2-2-2-------------------- 
A-2-2-2-2--2-2-2-2--6-6-6-6--2-2-2-2-------------------- 
E----------0-0-0-0--4-4-4-4--0-0-0-0--------------------


Chorus    Up all night long....... 

E-----------------------------------------------------
B-----------------------------------------------------
G-4---4-4-4-4-------------4---4-4-4-4-----------------
D-4---4-4-4-4-4---4-4-4-4-4---4-4-4-4-4---4-4-4-4-----
A-2---2-2-2-2-4---4-4-4-4-2---2-2-2-2-4---4-4-4-4-----
E-------------2---2-2-2-2-------------2---2-2-2-2-----


And I know it must be late.....(play with down+up strokes)

E-------------------------------------------------------
B-------------------------------------------------------
G--------------99-99-99-99---------------99-99-99-99----
D-66-66-66-66--99-99-99-99--66-66-66-66--99-99-99-99----
A-66-66-66-66--77-77-77-77--66-66-66-66--77-77-77-77----
E-44-44-44-44---------------44-44-44-44-----------------
(P.M.................................................)


       I'm not like you guys....... 

E---------------------------------------------------------
B---------------------------------------------------------
G-------------------4-------------------------4-----------
D-4---4-4--2---2-2--4-------4---4-4--2---2-2--4-----------
A-4---4-4--2---2-2--2-------4---4-4--2---2-2--2-----------
E-2---2-2--0---0-0----------2---2-2--0---0-0--------------



Bridge 

E----------------------------------------------------------------
B----------------------------------------------------------------
G----------------------------------------------------------------
D-4-4-4-4-4-4-4-4-4-4-4-4-4-4-4-4-4-4-4-4-4-4-4-4-4-4------------
A-2-2-2-2-2-2-2-2-2-2-2-2-2-2-2-2-2-2-2-2-2-2-2-2-2-2------------
E----------------------------------------------------------------

 
Bridge Continued (guitar one keeps playing ^^^) 

E---------------------------------0-0-0-0-0-0-0-0-0-------------- 
B-4-4-4-4-4-4-4-4-4-2-2-2-2-2-2-2------------------4-4-4-4-4-4-4-
G----------------------------------------------------------------
D----------------------------------------------------------------
A----------------------------------------------------------------
E----------------------------------------------------------------

  

     Dark and scary, ordinary.... 

E-----------------------------------------------------
B-----------------------------------------------------
G-------------------------4-4-4-4--------------------- 
D-6-6-6-6-4-4-4-4-2-2-2-2-4-4-4-4--------------------- 
A-6-6-6-6-4-4-4-4-2-2-2-2-2-2-2-2--------------------- 
E-4-4-4-4-2-2-2-2-0-0-0-0-----------------------------

------------------------------------------------------------------------------------
Title  : Going Away To College


Riff A (option A)
(downstroke and upstrokes)

E----------------------
B----------------------
G--8-8-8-8--8--8--8--8-
D--9-9-9-9--11-11-11-11
A--x-x-x-x--x--x--x--x-
E--7-7-7-7--7--7--7--7-




Riff B

E--------------------------------------
B--------------------------------------
G---------------8--------------------8-
D------9-------------------9-----------
A--------------------------------------
E-7-7-----7-7--------7-7--------7-7----

Riff B (cont)

E------------------------------------------
B------------------------------------------
G---------------8--------------------------
D-----9------------------------11-------11-
A-7-7------7-7-------------9-9-----9-9-----
E------------------------------------------

Riff C

E------------------------
B------------------------
G-4-4-4---9-9-9--11-11-11
D-4-4-4---9-9-9--11-11-11
A-2-2-2---7-7-7---9--9--9
E------------------------

Riff D

E------------------------------
B------------------------------
G-8-8-8---9-9-9----------------
D-8-8-8---9-9-9--9-9-9---4-4-4-
A-6-6-6---7-7-7--9-9-9---4-4-4-
E----------------7-7-7---2-2-2-

Riff E(upstrokes)

E--------------------
B--------------------
G-8-8-8--9-9--------- (for this riff just mess around with these notes)
D--------------9-9-9-
A--------------------
E--------------------

Order

Riff A (choose an option) 0:00
Riff B                    0:20
Bass Plays
Riff C                    0:37
Riff B                    0:48
Bass Plays
Riff C                    1:06
Riff D                    1:15
Riff B                    1:33
Riff E                    1:43
Riff C                    1:52
Riff D                    2:01
Riff A (choose an option) 2:20
Riff D                    2:39

End on 

D-4-
A-4-
E-2-

------------------------------------------------------------------------------------
Title : What's My Age Again



Intro/Verse 1

E--------------------------------------------------------------
B-------11-------------11--------------11----------------11----
G----11----11------11------11-------11----11---------11-----11-
D--9-----------------------------------------------------------
A--------------9-----------------------------------------------
E-------------------------------9---------------11-------------


Chorus

E----------------------
B----------------------
G-----6-6---8-8----4-4-
D-4---6-6---8-8----4-4-
A-4---4-4---6-6----2-2-
E-2--------------------

Verse 2

E-------------------------------------
B-------------------------------------
G-------------------------------------
D-4-4-4-4-----------6-6-6-6---8-8-8-8-
A-2-2-2-2-4-4-4-4---4-4-4-4---6-6-6-6-
E---------2-2-2-2---------------------

Solo

E---------------------------------------------------------
B-11-----11---------11------------------------------------
G----11-----11---------11---------------------------------
D----------------9--------------8h9---------8h9-------8h9-
A-------------------------9-9-9------9-9-9------9-9-9-----
E---------------------------------------------------------

Solo Continued


E--------------------------------------------------------
B--------7----------------7---------------7-------------7
G--------------------------------------------------------
D----8---------8-----8-----------8----8--------8------8--
A-9---------9-----9-----------9-----9-------9------9-----
E--------------------------------------------------------

Solo Continued

E--------------------------------------------
B--------7----------------7---------------7--
G--------------------------------------------
D----8---------8-----8-----------8----8------
A-9---------9-----9-----------9-----9--------
E--------------------------------------------

Then play chorus

------------------------------------------------------------------------------------
Title  : Dysentary Gary

Intro

|-------------------------------------------------------------------
|-------------------------------------------------------------------
|-------------------------------------------------------------------
|--4-4-4--0-0-0--5-5-5--4-4-4--0-0-0----------4-4-4--0-0-0-0-0-0-0-0
|-------------------------------------------------------------------
|--------------------------------------3-3-3------------------------

Intro Part 2

E------------------------------
B------------------------------
G-7-7-7-7-7-7------------------
D-7-7-7-7-7-7--5-5-5-5---7-7-7-7
A-5-5-5-5-5-5--5-5-5-5---7-7-7-7
E--------------3-3-3-3---5-5-5-5


Verse

E-----------------------------------------------------
B-----------------------------------------------------
G-7-x-x-x-x-7--7-x-x-x-x-7----------------------------
D-7-x-x-x-x-7--7-x-x-x-x-7--5-x-x-x-x-5--7-x-x-7-x-7-7
A-5-x-x-x-x-5--5-x-x-x-x-5--5-x-x-x-x-5--7-x-x-7-x-7-7
E---------------------------3-x-x-x-x-3--5-x-x-5-x-5-5


Pre-Chorus (strum gently)

E------------------------------------
B------------------------------------
G-7-7-7-7-7-7-7-7----7-7-7-7-7-7-7-7-
D-7-7-7-7-7-7-7-7----5-5-5-5-5-5-5-5-
A-5-5-5-5-5-5-5-5----5-5-5-5-5-5-5-5-
E-----------------------------



"Life just sucks..."
E-15-14-------------
B-------15----------
B----------12-12-12-
D-------------------
A-------------------
E-------------------

------------------------------------------------------------------------------------
Title   : Adam's Song

Intro

E-----------------------------------------------------------------------
B-----------------------------------------------------------------------
G-----------------------------------------------------------------------
D----2--------2--------2--------2--------2--------2--------2--------2----
A-0----3---0----3--------3--------3---------3--------3-------3--------3--
E-------------------3--------3--------1---------1-------0--------1------

Verse

E----------------------------------------------------------------------
B----------------------------------------------------------------------
G-5-5-5-5-5-5-5-5-------------------2-2-2-2-2-2-2-2--------------------
D-5-5-5-5-5-5-5-5--3-3-3-3-3-3-3-3--2-2-2-2-2-2-2-2----3-3-3-3-3-3-3-3-
A-3-3-3-3-3-3-3-3--3-3-3-3-3-3-3-3--0-0-0-0-0-0-0-0----3-3-3-3-3-3-3-3-
E------------------1-1-1-1-1-1-1-1---------------------1-1-1-1-1-1-1-1-
(P.M..................................................................)

Bridge

E--------------------------------------------------------------------------
B--------------------------------------------------------------------------
G---0--------0----------2---------2----------------------------------------
D------3---------3---0-----3---0----3-----2--------2--------2---------2----
A-3-------3----------------------------0----3---0-----3--------3---------3-
E--------------------------------------------------------3---------3-------

Pre-Chorus

E-----------------------------------------------------
B-----------------------------------------------------
G-5-5-5-5-5-5-5-5---7-7-7-7-7-7-7-7---9-9-9-9-9-9-9-9-
D-5-5-5-5-5-5-5-5---7-7-7-7-7-7-7-7---9-9-9-9-9-9-9-9-
A-3-3-3-3-3-3-3-3---5-5-5-5-5-5-5-5---7-7-7-7-7-7-7-7-
E-----------------------------------------------------


Chorus 
E------------------------------------------------------------------------
B------------------------------------------------------------------------
G-5-5-5-5-5-5-5-5---7-7-7-7-7-7-7-7--------------------------------------
D-5-5-5-5-5-5-5-5---7-7-7-7-7-7-7-7---7-7-7-7-7-7-7-7----3-3-3-3-3-3-3-3-
A-3-3-3-3-3-3-3-3---5-5-5-5-5-5-5-5---7-7-7-7-7-7-7-7----3-3-3-3-3-3-3-3-
E-------------------------------------5-5-5-5-5-5-5-5----1-1-1-1-1-1-1-1-

Bridge

E-----------------------------------------------------------------------
B-----------------------------------------------------------------------
G-----------------------------------------------------------------------
D----2--------2--------2--------2--------2-------2--------2--------2----
A-0----3---0----3--------3--------3---------3-------3-------3--------3--
E-------------------3--------3--------1---------1-------0--------1------

Verse 2

E----------------------------------------------------------------------
B----------------------------------------------------------------------
G-5-5-5-5-5-5-5-5-------------------3-3-3-3-3-3-3-3--------------------
D-5-5-5-5-5-5-5-5--2-2-2-2-2-2-2-2--3-3-3-3-3-3-3-3----2-2-2-2-2-2-2-2-
A-3-3-3-3-3-3-3-3--2-2-2-2-2-2-2-2--1-1-1-1-1-1-1-1----2-2-2-2-2-2-2-2-
E------------------0-0-0-0-0-0-0-0---------------------0-0-0-0-0-0-0-0-
(P.M..................................................................)


Bridge

E--------------------------------------------------------------------------
B--------------------------------------------------------------------------
G---0--------0----------2---------2----------------------------------------
D------3---------3---0-----3---0----3-----2--------2--------2---------2----
A-3-------3----------------------------0----3---0-----3--------3---------3-
E--------------------------------------------------------3---------3-------

Pre-Chorus

E-----------------------------------------------------
B-----------------------------------------------------
G-5-5-5-5-5-5-5-5---7-7-7-7-7-7-7-7---9-9-9-9-9-9-9-9-
D-5-5-5-5-5-5-5-5---7-7-7-7-7-7-7-7---9-9-9-9-9-9-9-9-
A-3-3-3-3-3-3-3-3---5-5-5-5-5-5-5-5---7-7-7-7-7-7-7-7-
E-----------------------------------------------------


Chorus
 
E------------------------------------------------------------------------
B------------------------------------------------------------------------
G-5-5-5-5-5-5-5-5---7-7-7-7-7-7-7-7--------------------------------------
D-5-5-5-5-5-5-5-5---7-7-7-7-7-7-7-7---7-7-7-7-7-7-7-7----3-3-3-3-3-3-3-3-
A-3-3-3-3-3-3-3-3---5-5-5-5-5-5-5-5---7-7-7-7-7-7-7-7----3-3-3-3-3-3-3-3-
E-------------------------------------5-5-5-5-5-5-5-5----1-1-1-1-1-1-1-1-


Piano Solo [guitar arrangement]

E-0--------0-------0------8-8---10----8--10----13-13-13--12-12-12-10-
B---1----1----1------------------------------------------------------
G-----0----------0---------------------------------------------------
D--------------------------------------------------------------------
A--------------------------------------------------------------------
E--------------------------------------------------------------------


Piano Solo Continued

E----8--10------------8---10---8----12-12-12--13-13-13---15-
B-8---------6-6-6-6-----------------------------------------
G-----------------------------------------------------------
D-----------------------------------------------------------
A-----------------------------------------------------------
E-----------------------------------------------------------

Riff that guitar plays during and after piano solo

E----------------------------------
B----------------------------------
G----5------5---5-----5---5-5-5-5-
D--------5----5----5------5-5-5-5-
A-3-----------------------3-3-3-3-
E---------------------------------

Ending

E----------------------------------------------------------------------------
B----------------------------------------------------------------------------
G-5-5-5-5-5-5-5-5---7-7-7-7-7-7-7-7-----------------------------------------5
D-5-5-5-5-5-5-5-5---7-7-7-7-7-7-7-7---7-7-7-7-7-7-7-7----3-3-3-3-3-3-3-3----5
A-3-3-3-3-3-3-3-3---5-5-5-5-5-5-5-5---7-7-7-7-7-7-7-7----3-3-3-3-3-3-3-3----3
E-------------------------------------5-5-5-5-5-5-5-5----1-1-1-1-1-1-1-1-----

------------------------------------------------------------------------------------
Title   : All The Small Things


Intro

E-------------------------------------------------------------------------
B-----------------------6-6-6-6-6-6-6-6-----------------------------------
G------5-5-5-5-5-5-5-5--5-5-5-5-5-5-5-5-----------------------------------
D-5-3--5-5-5-5-5-5-5-5--3-3-3-3-3-3-3-3--5-5-5-5-5-5-5-5---x-x-x-x---3-3-3
A-5-3--3-3-3-3-3-3-3-3-------------------5-5-5-5-5-5-5-5---x-x-x-x---3-3-3
E-3-1------------------------------------3-3-3-3-3-3-3-3---x-x-x-x---1-1-1

Verse

E----------------------------------------------------------------------
B----------------------------------------------------------------------
G-5-5-5-5-5-5-5-5------------------------------------------------------
D-5-5-5-5-5-5-5-5-5-5-5-5-5-5-5-5----3-3-3-3-3-3-3-3---5-5-5-5-5-5-5-5-
A-3-3-3-3-3-3-3-3-5-5-5-5-5-5-5-5----3-3-3-3-3-3-3-3---5-5-5-5-5-5-5-5-
E-----------------3-3-3-3-3-3-3-3----1-1-1-1-1-1-1-1---3-3-3-3-3-3-3-3-
(P.M..................................................................)

Then (Let ring |say it aint so...)

E----
B----
G-5--
D-5--
A-3--
E----

Chorus (nanananananana....)

E-----------------------------------
B-----------------------------------
G-5-5-5-5-5-5-5-5-------------------
D-5-5-5-5-5-5-5-5--5-5-5-5---3-3-3-3
A-3-3-3-3-3-3-3-3--5-5-5-5---3-3-3-3
E------------------3-3-3-3---1-1-1-1

Bridge

E----------------------------------------------------------------------------
B----------------------------------------------------------------------------
G-5-5-5-5-5-5-5-5------10-10-10-10---9-9-9-9--7-7-7-7-7-7-7-7----------------
D-5-5-5-5-5-5-5-5-------x--x--x--x---x-x-x-x--x-x-x-x-x-x-x-x--x-x-x-x--3-3-3-
A-3-3-3-3-3-3-3-3-------8--8--8--8---7-7-7-7--5-5-5-5-5-5-5-5--x-x-x-x--3-3-3-
E--------------------------------------------------------------x-x-x-x--1-1-1-


Verse

E----------------------------------------------------------------------
B----------------------------------------------------------------------
G-5-5-5-5-5-5-5-5------------------------------------------------------
D-5-5-5-5-5-5-5-5-5-5-5-5-5-5-5-5----3-3-3-3-3-3-3-3---5-5-5-5-5-5-5-5-
A-3-3-3-3-3-3-3-3-5-5-5-5-5-5-5-5----3-3-3-3-3-3-3-3---5-5-5-5-5-5-5-5-
E-----------------3-3-3-3-3-3-3-3----1-1-1-1-1-1-1-1---3-3-3-3-3-3-3-3-
(P.M..................................................................)

Then (Let ring |say it aint so...)
E----
B----
G-5--
D-5--
A-3--
E----

Chorus (nanananananana....)

E-----------------------------------
B-----------------------------------
G-5-5-5-5-5-5-5-5-------------------
D-5-5-5-5-5-5-5-5--5-5-5-5---3-3-3-3
A-3-3-3-3-3-3-3-3--5-5-5-5---3-3-3-3
E------------------3-3-3-3---1-1-1-1

Solo Thing (Main part | heard on cd, not played live | let ring)

E--------------------------------
B--------------------------------
G-5---2---4---repeat as necessary
D-5---3---5----------------------
A-3---3---5----------------------
E-----1---3----------------------

Solo thing backing (played behind the main part on cd | played as the main live)

E----------------------------------------------------------------
B----------------------------------------------------------------
G-5---5---5---5---4---4---4---4---5---5---5---5---7---7---7---7--
D---5---5---5---5---5---5---5---5---5---5---5---5---5---5---5---5
A----------------------------------------------------------------
E----------------------------------------------------------------

Ending (say it ain't so...)

E-----------------------------------
B-----------------------------------
G-5-5-5-5-5-5-5-5-------------------
D-5-5-5-5-5-5-5-5--5-5-5-5---3-3-3-3
A-3-3-3-3-3-3-3-3--5-5-5-5---3-3-3-3
E------------------3-3-3-3---1-1-1-1

End On

E---
B---
G-5-
D-5-
A-3-
E---


------------------------------------------------------------------------------------
Title   : The Party Song

Verse (just play with these chords)

--------------------
--------------------
----9-----9---------    
-9--9--9--9---------
-9--7--9--7---------
-7-----7------------

Pre-Chorus (and then i saw her...)

E---------------------------------------------
B---------------------------------------------
G--------------------------------------------- 
D---------------------------------------------
A-9-7-6---7-6---7-6---------------------------
E-------7-----7-----7--7-9-7------------------

Chorus (some girls try...)

E---------------------
B---------------------
G---------------------   
D---9-----------------
A---------9-7-6-------
E-7---7---------------

------------------------------------------------------------------------------------
Title   : Mutt | to tell u the truth this song is just a bunch of chords and rhythm 
                 figures mushed to together - this tab is right but is not in any real 
                 order


Riff A

E--------------------------------------------------------------------
B------2--------2------2------2------2-----2---2----2----------------
G----2--------2------2------2------2-----2---2----2------------------
D--2--------2------2------2-------0----0---0----0--------------------
A--------------------------------------------------------------------
E--------------------------------------------------------------------

Rhythm Rif A

E-----------------------------------
B-----------------------------------
G-----------------------------------
D-7-7-7-7-7-7-7-7--4-4-4-4--2-2-2-2-
A-7-7-7-7-7-7-7-7--4-4-4-4--2-2-2-2-
E-5-5-5-5-5-5-5-5--2-2-2-2--0-0-0-0-


Rhythm Fig B

E-----------------------------------------------------
B-----------------------------------------------------
G------------------------------------7-7-7-7--9-9-9-9-
D-7-7-7-7-7-7-7-7--4-4-4-4--2-2-2-2--7-7-7-7--9-9-9-9-
A-7-7-7-7-7-7-7-7--4-4-4-4--2-2-2-2--5-5-5-5--7-7-7-7-
E-5-5-5-5-5-5-5-5--2-2-2-2--0-0-0-0-------------------

Fill type riff (listen to the song - u will know what im talking about)

E-------------------------------------------
B-------------------------------------------
G-------------------------------------------
D-------------------------------------------
A-----4h5p4-----4h5p4------4h5p4-----4h5p4--
E-5-5-------5-5--------7-7-------7-7--------


Rhythm Fig C

E----------------------------
B----------------------------
G-2-2-2-2--4-4-4-4--7-7--6-6-
D-2-2-2-2--4-4-4-4--7-7--6-6-
A-0-0-0-0--2-2-2-2--5-5--4-4-
E----------------------------

Rhythm Fig D (the one that ends the song | let ring)

E-------------------
B-------------------
G-2-----4---7---6---
D-2-----4---7---6---
A-0-----2---5---4---
E-------------------

------------------------------------------------------------------------------------
Title   : Wendy Clear


Intro riff
E-------------
B-------------
G-------------
D---5-----3-2-
A-3---3-5-----
E-------------

Verse
E-------------------------------------------------
B-------------------------------------------------
G-555555555555555---------------------------------
D-555555555555555-5--3-3-3-3--7-7-7-7--3-3-3-3--5-
A-333333333333333-5--3-3-3-3--7-7-7-7--3-3-3-3--5-
E-----------------3--1-1-1-1--5-5-5-5--1-1-1-1--3-

Pre-Chorus (I'd play with fire to break the ice...)
E---------------------------------------------------------------------
B---------------------------------------------------------------------
G-------------------5-5-5-5-5-5-5-5--------------------5-5-5-5-5-5-5-5-
D-5-5-5-5--3-3-3-3--5-5-5-5-5-5-5-5--5-5-5-5--3-3-3-3--5-5-5-5-5-5-5-5-
A-5-5-5-5--3-3-3-3--3-3-3-3-3-3-3-3--5-5-5-5--3-3-3-3--3-3-3-3-3-3-3-3-
E-3-3-3-3--1-1-1-1-------------------3-3-3-3--1-1-1-1-----------------

Chorus 1: (is there something i'll regret...)
E-----------------------------------------------------------------
B-----------------------------------------------------------------
G-------------------5-5-5-5---------------------------------------
D-7-7-7-7--3-3-3-3--5-5-5-5--5-5-5-5--7-7-7-7--3-3-3-3------------
A-7-7-7-7--3-3-3-3--3-3-3-3--5-5-5-5--7-7-7-7--3-3-3-3------------
E-5-5-5-5--1-1-1-1-----------3-3-3-3--5-5-5-5--1-1-1-1------------

Verse 2:
E------------------------------------------------------------------------
B------------------------------------------------------------------------
G--------------------------------------------------------5-5-5-5-5-5-5-5-
D-itz all bass till this riffy-------------------------5-5-5-5-5-5-5-5-5-
A------------------------------------------------------5-3-3-3-3-3-3-3-3-
E------------------------------------------------------3-----------------

Chorus 2:
E-----------------------------------------------------------------------
B-----------------------------------------------------------------------
G-------------------5-5-5-5-----------------------------5-5-5-5-5-5-5-5-
D-7-7-7-7--3-3-3-3--5-5-5-5--5-5-5-5--7-7-7-7--3-3-3-3--5-5-5-5-5-5-5-5-
A-7-7-7-7--3-3-3-3--3-3-3-3--5-5-5-5--7-7-7-7--3-3-3-3--3-3-3-3-3-3-3-3-
E-5-5-5-5--1-1-1-1-----------3-3-3-3--5-5-5-5--1-1-1-1------------------

Bridge: (i'll be, movin' on...)
E----------------------------------------------------------------
B----------------------------------------------------------------
G---------------------5-5--------------------------------5-5-5-5-
D-5-5-------3-3-------5-5-------5-5-------7-7-------3-3--5-5-5-5-
A-5-5-------3-3-------3-3-------5-5-------7-7-------3-3--3-3-3-3-
E-3-3-------1-1-----------------3-3-------5-5-------1-1----------
(P.M............................................................)

------------------------------------------------------------------------------------
Title   : Anthem

Intro/Verse (Rhythm not shown):

E---------------------------------------------
B----------------------4-4-4-4--5-5-5-5-------
G-4-4-4-4---4-4-4-4----4-4-4-4--4-4-4-4-------
D-4-4-4-4---4-4-4-4----x-x-x-x--x-x-x-x---4-4-
A-2-2-2-2---2-2-2-2----2-2-2-2--2-2-2-2---4-4-
E-----------------------------------------2-2-

Chorus  "But good things come..."
E----------------------------------------------------------------
B----------------------------------------------------------------
G----------------------------------------------------------------
D--7-7-7-7--5-5-5-5--3-3-3-3--5-5-5-5----------------------------
A--7-7-7-7--5-5-5-5--3-3-3-3--5-5-5-5----------------------------
E--5-5-5-5--3-3-3-3--1-1-1-1--3-3-3-3----------------------------


Bridge  "You don't belong..."
E----------------------------------------------------------------
B----------------------------------------------------------------
G-5-5-5-5--------------------------------------------------------
D-5-5-5-5--3-3-3-3--7-7-7-7--5-5-5-5-----------------------------
A-3-3-3-3--3-3-3-3--7-7-7-7--5-5-5-5-----------------------------
E----------1-1-1-1--5-5-5-5--3-3-3-3-----------------------------

+++++++++++++++++++++++++++
+       Key               +                  
+                         +
+    h  = hammer on       +
+    p  = pull-off        +
+    pm = palm-muted      +
++++++++++++++++++++++++++++
Добавлено: 07.02.2016
Другие материалы по этой песне:
  • Аккорды и текст

Страница создана 06.02.2016
http://primanota.ru/blink-182-2/enema-of-state-ver-2-album-chords.htm
Привет, Гость.
Предлагаем пройти революционный курс по гитаре.
Подарок от PrimaNota.Ru, забирай!