PrimaNota.ru - самый крупный в мире бесплатный архив песенных текстов, аккордов, табулатур и нот


Blindspott - Yours Truly - таба, видео

Регистрация Запомнить меня
Войти через:  Facebook Google Twitter Vk Yandex Mail.ru

Blindspott - Yours Truly - таба, видео

Печатать
Просмотров: 179
-------------------------------------------------------------------------------
                             Yours Truly - Blindspott
-------------------------------------------------------------------------------
Tabbed by: bloodred16
Email: happytreefriends_firstblood@hotmail.com

Tuning: down a step drop D (CGCFAD)

I know there's two guitarists for this band but im tabbing it out for one guitar
cuz i can't be fucked to do two! I'll include parts where you can play both and
you decide but apart from that what's there - i reckon - sounds good enough!

Intro                                        
D|----------------------------------------------------------------------------|
A|----------------------------------------------------------------------------|
F|----------------------------------------------------------------------------|
C|4-1-1-1-4-1-1-1--1-4-1-1--4-1-1-1-4-1-1-1--1-4-1-1--9-6-6-6-9-6-6-6--6-9-6-6|
G|4-1-1-1-4-1-1-1--1-4-1-1--4-1-1-1-4-1-1-1--1-4-1-1--9-6-6-6-9-6-6-6--6-9-6-6|
C|4-1-1-1-4-1-1-1--1-4-1-1--4-1-1-1-4-1-1-1--1-4-1-1--9-6-6-6-9-6-6-6--6-9-6-6|


D|----------------------------------------------------------------------------|
A|----------------------------------------------------------------------------|
F|----------------------------------------------------------------------------|
C|9-6-6-6-9-6-6-6--6-9-6-6---------1------------------------------------------|
G|9-6-6-6-9-6-6-6--6-9-6-6---------1------------------------------------------|
C|9-6-6-6-9-6-6-6--6-9-6-6-(x2)----1------------------------------------------|
                                   |----------

Verse 1
D|----------------------------------------------------------------------------|
A|----------------------------------------------------------------------------|
F|----------------------------------------------------------------------------|
C|----------------------------------------------------------------------------|
G|---13---------16-13------13-14-----------------13---------16-13------13-14--|
C|13----16---16---------16---------13-16-13---13----16---16---------16--------|

D|----------------------------------------------------------------------------|
A|----------------------------------------------------------------------------|
F|----------------------------------------------------------------------------|
C|---16-15h16p15h16-----------------------------------------------------------|
G|13--------------------------------------------------------------------------|
C|----------------------------------------------------------------------------|

Chorus
D|----------------------------------------------------------------------------|
A|----------------------------------------------------------------------------|
F|----------------------------------------------------------------------------|
C|1-1-1-1-1-1-1-4-6-6-6-6-6-6-6-6-9-9-9-9-9-9-9-9-11-11-11-11-11-11-11-11-----|
G|1-1-1-1-1-1-1-4-6-6-6-6-6-6-6-6-9-9-9-9-9-9-9-9-11-11-11-11-11-11-11-11-----|
C|1-1-1-1-1-1-1-4-6-6-6-6-6-6-6-6-9-9-9-9-9-9-9-9-11-11-11-11-11-11-11-11-(x2)|

Interlude - Same as intro

Verse 2
D|-----------------------------------------------------------------------------|
A|-----------------------------------------------------------------------------|
F|-----------------------------------------------------------------------------|
C|-------------9-----13----9-----9-------13------------------------------------|
G|13-13-----9--9-----13----------9-------13------------------------------------|
C|13-----------9-----13----------9-------13------------------------------------|

Chorus

Interlude 2 - Riff A and Rhy. Fig. 1 are played at the same time in the song, and
            they both sound good when played so i put the both down!
Riff A
D|-----------------------------------------------------------------------------|
A|-----------------------------------------------------------------------------|
F|888888888888-11111111-1616161616161616-1515151515151515-1616161616161616-----|
C|xxxxxxxxxxxx--x-x-x-x--x-x-x-x-x-x-x-x--x-x-x-x-x-x-x-x--x-x-x-x-x-x-x-x-----|
G|666666666666--9-9-9-9-1414141414141414-1313131313131313-1414141414141414-----|
C|-----------------------------------------------------------------------------|
                  
D|-----------------------------------------------------------------------------|
A|-----------------------------------------------------------------------------|
F|1515151515151515-1313131313131313-1111111111111111-------8-------------------|
C|-x-x-x-x-x-x-x-x--x-x-x-x-x-x-x-x--x-x-x-x-x-x-x-x-------x-------------------|
G|1313131313131313-1111111111111111--9-9-9-9-9-9-9-9-------6-------------------|
C|---------------------------------------------------(x2)----------------------|
                                                      

Rhy. Fig. 1- this might not be right but Riff A is and this goes with Riff A!!!
D|-----------------------------------------------------------------------------|
A|-----------------------------------------------------------------------------|
F|-----------------------------------------------------------------------------|
C|111111111111-4444-99999999-88888888-99999999-88888888-66666666-44444444-----1|
G|111111111111-4444-99999999-88888888-99999999-88888888-66666666-44444444-----1|
C|111111111111-4444-99999999-88888888-99999999-88888888-66666666-44444444(x2)-1|
                                                                           
Bridge
D|-----------------------------------------------------------------------------|
A|--------------------------7--------------------------------------------------|
F|----------------------------------------------------------------10h11p10p8---|
C|----4---4----8-4---4--------------4---4---8-4---11-8-11----4444------------11|
G|6-8---6---6------8---8-6------6-8---6---6-----8------------2222--------------|
C|-----------------------------------------------------------4444--------------|

             |----------------Rhy. Fig. 2 (x2)--------------------| |(x2)|
D|-----------------------------------------------------------------------------|
A|-----------------------------------------------------------------------------|
F|-----------------------------------------------------------------------------|
C|4444-6666--4-111--4-111--4-111--4-111--9-666--9-666--9-666--9-666--1-1-1-----|
G|2222-4444--4-111--4-111--4-111--4-111--9-666--9-666--9-666--9-666--1-1-1-----|
C|4444-------4-111--4-111--4-111--4-111--9-666--9-666--9-666--9-666--1-1-1-----|

Chorus
Interlude 2

Ending
D|-----------------------------------------------------------------------------|
A|-----------------------------------------------------------------------------|
F|-----------------------------------------------------------------------------|
C|----4---4---8-4-----4--------------------------------------------------------|
G|6-8---6---8-----8-8---8-6----------------------------------------------------|
C|-----------------------------------------------------------------------------|

| /  slide up
| \  slide down
| h  hammer-on
| p  pull-off
| ~  vibrato
| +  harmonic
| x  Mute note
===============================================================================
Добавлено: 04.03.2012
Другие материалы по этой песне:
  • Аккорды и текст

Страница создана 04.03.2012
http://primanota.ru/blindspott/yours-truly-chords.htm
Привет, Гость.
Предлагаем пройти революционный курс по гитаре.
Подарок от PrimaNota.Ru, забирай!