PrimaNota.ru - самый крупный в мире бесплатный архив песенных текстов, аккордов, табулатур и нот


Blindspott - Stay - таба, видео

Регистрация Запомнить меня
Войти через:  Facebook Google Twitter Vk Yandex Mail.ru

Blindspott - Stay - таба, видео

Печатать
Просмотров: 113
STAY/AWAY FROM ME
-----------
Artist - Blindspott
Album - End the Silence
Guitarists - Marcus Powell & Brandon Reihana
Tab By - Jeremy Buswell (jeremy_buswell@hotmail.com)

Tuning: 7 String Drop A (Low To High) A E A D G B E
____________________________________________________________________________

STAY
----

INTRO [DISTORTED - Play Twice]
E -7-----7-7---7-7---7-7---7---7-7-|-7-7-7---7---7-7-101010--10101010|
B -7-----7-7---7-7---7-7---7---7-7-|-7-7-7---7---7-7-101010--10101010|
G -11----1111--1111--1111--11--1111|-111111--11--1111141414--14141414|
D -9-----9-9---9-9---9-9---9---9-9-|-9-9-9---9---9-9-121212--12121212|
A -7-----7-7---7-7---7-7---7---7-7-|-7-7-7---7---7-7-101010--10101010|
E -7-----7-7---7-7---7-7---7---7-7-|-7-7-7---7---7-7-101010--10101010|
A -7-----7-7---7-7---7-7---7---7-7-|-7-7-7---7---7-7-101010--10101010|
   1 e + a 2 e + a 3 e + a 4 e + a | 1 e + a 2 e + a 3 e + a 4 e + a |

E ---------------------------------|---------------------------------|
B ---------0---------------0-------|---------0---------------0-------|
G ---------4---------------4-------|---------4---------------4-------|
D ---------------------------------|---------------------------------|
A -3-------------3-----3---------3-|-----3---------3-----3-------3---|
E -3-------------3-----3---------3-|-----3---------3-----3-------3---|
A -3-------------3-----3---------3-|-----3---------3-----3-------3---|
   1 e + a 2 e + a 3 e + a 4 e + a | 1 e + a 2 e + a 3 e + a 4 e + a |

FIRST VERSE [DISTORTED - Let chords ring]
E -----------------|-----------------|-----------------|-----------------|
B -----------------|-----------------|-----------------|-----------------|
G -----------------|-----------------|-----------------|-----------------|
D -----------------|-----------------|-----------------|-----------------|
A -0---------------|-----------------|-3---------------|-----------------|
E -0---------------|-----------------|-3---------------|-----------------|
A -0---------------|-----------------|-3---------------|-----------------|
   1 + 2 + 3 + 4 + | 1 + 2 + 3 + 4 + | 1 + 2 + 3 + 4 + | 1 + 2 + 3 + 4 + |

E -----------------|-----------------|-----------------|-----------------|
B -----------------|-----------------|-----------------|-----------------|
G -----------------|-----------------|-----------------|-----------------|
D -----------------|-----------------|-----------------|-----------------|
A -0---------------|-----------------|-3---------------|-0-------0---0---|
E -0---------------|-----------------|-3---------------|-0-------0---0---|
A -0---------------|-----------------|-3---------------|-0-------0---0---|
   1 + 2 + 3 + 4 + | 1 + 2 + 3 + 4 + | 1 + 2 + 3 + 4 + | 1 + 2 + 3 + 4 + |

Repeat INTRO/CHORUS as FIRST CHORUS

BREAK 1 [DISTORTED]
E -7-7-7-----7-7-----7-7-7---7-7---|-7-7-7-----7-7-----7-7-7---7-7---|
B -7-7-7-----7-7-----7-7-7---7-7---|-7-7-7-----7-7-----7-7-7---7-7---|
G -111111----1111----111111--1111--|-121212----1212----121212--1212--|
D -9-9-9-----9-9-----9-9-9---9-9---|-9-9-9-----9-9-----9-9-9---9-9---|
A -7-7-7-----7-7-----7-7-7---7-7---|-7-7-7-----7-7-----7-7-7---7-7---|
E -7-7-7-----7-7-----7-7-7---7-7---|-7-7-7-----7-7-----7-7-7---7-7---|
A -7-7-7-----7-7-----7-7-7---7-7---|-7-7-7-----7-7-----7-7-7---7-7---|
   1 e + a 2 e + a 3 e + a 4 e + a | 1 e + a 2 e + a 3 e + a 4 e + a |

SECOND VERSE [DISTORTED - Let chords ring]
E -----------------|-----------------|-----------------|-----------------|
B -----------------|-----------------|-----------------|-----------------|
G -----------------|-----------------|-----------------|-----------------|
D -----------------|-----------------|-----------------|-----------------|
A -0---------------|-----------------|-3---------------|---------3--3--0-|
E -0---------------|-----------------|-3---------------|---------3--3--0-|
A -0---------------|-----------------|-3---------------|---------3--3--0-|
   1 + 2 + 3 + 4 + | 1 + 2 + 3 + 4 + | 1 + 2 + 3 + 4 + | 1 + 2 + 3 + 4 + |

E -----------------|-----------------|-----------------|-----------------|
B -----------------|-----------------|-----------------|-----------------|
G -----------------|-----------------|-----------------|-----------------|
D -----------------|-----------------|-----------------|-----------------|
A -----------------|-----------------|-3---------------|-0-------0---0---|
E -----------------|-----------------|-3---------------|-0-------0---0---|
A -----------------|-----------------|-3---------------|-0-------0---0---|
   1 + 2 + 3 + 4 + | 1 + 2 + 3 + 4 + | 1 + 2 + 3 + 4 + | 1 + 2 + 3 + 4 + |

Repeat INTRO/CHORUS as SECOND CHORUS

BREAK 2 [DISTORTED]
E ---------------------------------|
B ---------------------------------|
G ---------------------------------|
D ---------------------------------|
A -0-2-0-2-3-2-0-2-0-2-0-2-3-2-0---|
E -0-2-0-2-3-2-0-2-0-2-0-2-3-2-0---|
A -0-2-0-2-3-2-0-2-0-2-0-2-3-2-0---|
   1 e + a 2 e + a 3 e + a 4 e + a |

Repeat BREAK 1

BRIDGE PART 1 [DISTORTED]
E -----------------|-----------------|-----------------|-----------------|
B -----------------|-----------------|-----------------|-----------------|
G -----------------|-----------------|-----------------|-----------------|
D -----------------|-----------------|-----------------|-----------------|
A -0---------------|-----------------|-3---------------|-----------------|
E -0---------------|-----------------|-3---------------|-----------------|
A -0---------------|-----------------|-3---------------|-----------------|
   1 + 2 + 3 + 4 + | 1 + 2 + 3 + 4 + | 1 + 2 + 3 + 4 + | 1 + 2 + 3 + 4 + |

ROLL VOLUME BACK TO ABOUT 1/2
 |--------------------------------Repeat-1x------------------------------|
E -----------------|-----------------|-----------------|-----------------|
B -----------------|-----------------|-----------------|-----------------|
G -----------------|-----------------|-----------------|-----------------|
D -----------------|-----------------|-----------------|-----------------|
A -----------------|-----------------|-----------------|-----------------|
E -----------------|-----------------|-----------------|-----------------|
A -7---------------|-----------------|-3---------------|-----------------|
   1 + 2 + 3 + 4 + | 1 + 2 + 3 + 4 + | 1 + 2 + 3 + 4 + | 1 + 2 + 3 + 4 + |

BRIDGE PART 2 !*KEY CHANGE*! [DISTORTED - Play Twice]  
E -9-----9-9---9-9---9-9---9---9-9-|-9-9-9---9---9-9-9-9-9---9-9-9-9-|
B -9-----9-9---9-9---9-9---9---9-9-|-9-9-9---9---9-9-9-9-9---9-9-9-9-|
G -13----1313--1313--1313--13--1313|-131313--13--1313131313--13131313|
D -11----1111--1111--1111--11--1111|-111111--11--1111111111--11111111|
A -9-----9-9---9-9---9-9---9---9-9-|-9-9-9---9---9-9-9-9-9---9-9-9-9-|
E -9-----9-9---9-9---9-9---9---9-9-|-9-9-9---9---9-9-9-9-9---9-9-9-9-|
A -9-----9-9---9-9---9-9---9---9-9-|-9-9-9---9---9-9-9-9-9---9-9-9-9-|
   1 e + a 2 e + a 3 e + a 4 e + a | 1 e + a 2 e + a 3 e + a 4 e + a |

E -5-----5-5---5-5---5-5---5---5-5-|-5-5-5---5---5-5-5-5-5---5-5-5-5-|
B -5-----5-5---5-5---5-5---5---5-5-|-5-5-5---5---5-5-5-5-5---5-5-5-5-|
G -9-----9-9---9-9---9-9---9---9-9-|-9-9-9---9---9-9-9-9-9---9-9-9-9-|
D -7-----7-7---7-7---7-7---7---7-7-|-7-7-7---7---7-7-7-7-7---7-7-7-7-|
A -5-----5-5---5-5---5-5---5---5-5-|-5-5-5---5---5-5-5-5-5---5-5-5-5-|
E -5-----5-5---5-5---5-5---5---5-5-|-5-5-5---5---5-5-5-5-5---5-5-5-5-|
A -5-----5-5---5-5---5-5---5---5-5-|-5-5-5---5---5-5-5-5-5---5-5-5-5-|
   1 e + a 2 e + a 3 e + a 4 e + a | 1 e + a 2 e + a 3 e + a 4 e + a |

Repeat INTRO/CHORUS for FINAL CHORUS

AWAY FROM ME
------------
 |-----------Repeat-20x------------|
E ---------------------------------|-----|
B ---------------------------------|-----|
G ---------------------------------|-----|
D ---------------------------------|-----|
A -0-2-0-2-3-2-0-2-0-2-0-2-3-2-0-2-|-0---|
E -0-2-0-2-3-2-0-2-0-2-0-2-3-2-0-2-|-0---|
A -0-2-0-2-3-2-0-2-0-2-0-2-3-2-0-2-|-0---|
   1 e + a 2 e + a 3 e + a 4 e + a |

END
Добавлено: 07.05.2012
Другие материалы по этой песне:
  • Аккорды и текст

Страница создана 07.05.2012
http://primanota.ru/blindspott/stay-chords.htm
Привет, Гость.
Предлагаем пройти революционный курс по гитаре.
Подарок от PrimaNota.Ru, забирай!