PrimaNota.ru - самый крупный в мире бесплатный архив песенных текстов, аккордов, табулатур и нот


Blindspott - Phlex - таба, бас-таба, видео

Регистрация Запомнить меня
Войти через:  Facebook Google Twitter Vk Yandex Mail.ru

Blindspott - Phlex - таба, бас-таба, видео

Печатать
Просмотров: 207
Author/Band:Blindspott
Song:Phlex
Album:Blindspott
Tuning:Standard (E A D G B E) Low to High
Tabbed by: KoRotz
Contact: epat_skateboarding@hotmail.com

Key
<> = harmonic
p  = pull of
h  = hammer on
*  = palm mute
x  = mute
/  = slide up
\  = slide down
^  = bend

G3 intro 4x
-------------------------|
-------------------------|
--------<12>-------------|
--<7>---------<12>-(12)--|
-------------------------|
-------------------------|

G2 intro 1x
---8------10------12------10---|
--10------12------10------12---|
---9------12------10------12---|
-------------------------------|
-------------------------------|
-------------------------------|

G1 verse strum 2x
--0----3----1----3---|
--1----3----1----3---|
--2----0----2----0---|
--2----0----3----0---|
--0----2----3----2---|
-------3----1----3---|

G3 Chorus 2x
------0-0-0------------------------0-0-0------------3-3-1p0--|
------0-1-0h1p0--------------------0-1-0h1p0--------3--------|
------2-2-2-----0------------------2-2-2-----0---------------|
----2------------------7---5-----3-3--------------0----------|
--0------------------5---------3---3-------------------------|
-------------------3----------------------------3------------|

G1 verse strum 2x
--0----3----1----3---|
--1----3----1----3---|
--2----0----2----0---|
--2----0----3----0---|
--0----2----3----2---|
-------3----1----3---|

G3 Chorus 3x
------0-0-0------------------------0-0-0------------3-3-1p0--|
------0-1-0h1p0--------------------0-1-0h1p0--------3--------|
------2-2-2-----0------------------2-2-2-----0---------------|
----2------------------7---5-----3-3--------------0----------|
--0------------------5---------3---3-------------------------|
-------------------3----------------------------3------------|

G2 Bridge w/delay 3x
---8p7---7-----10---8--8--7--3--15---|
--10----10---8--8--10--6--8--3--12---|
-------------------------------------|
-------------------------------------|
-------------------------------------|
-------------------------------------|

G3 ending (till fade)
------0-0-0------------------------0-0-0----------3-3-1p0--|
------0-1-0h1p0--------------------0-1-0h1p0------3--------|
------2-2-2-----0------------------2-2-2-------------------|
----2------------------7---5-----3-3------------0----------|
--0------------------5---------3---3-----------------------|
-------------------3--------------------------3------------|

G2 ending (till fade)
---8------10------12------10---|
--10------12------10------12---|
---9------12------12------12---|
-------------------------------|
-------------------------------|
-------------------------------|

G1 ending strum (till fade)
--0----3----1----3---|
--1----3----1----3---|
--2----0----2----0---|
--2----0----3----0---|
--0----2----3----2---|
-------3----1----3---|

that's it
shoutouts to mcud and MuNkY!

Lyrics

Sometimes when you lose your head
When you get upset within a break-up
For theres no reason yet why they took your friends theres

No reason at all, at all
No reason at all, at all
No reason

When you want to rest your head on a shoulder that you know wont turn on you
Were all here to the end with you my friend 
Theres no reason to go

Theres no reason to go, to go
We wont let you go, dont go

turntables
"not one day that you are here on this earth has been promised to you"

Not one day that you are here on this earth has been promised to you
So make the most of every day as if it was your last
And every breathe as if it was the same
The same
As if it was the same
The same
Things will never be the same, the same
We will never be the same
The same
The same
Things will never be the same, the same
Never be the same

turntables
"not one day that you are here has been promised to you"
"So make the most of every day as if it was your last"
"And every breathe as if it was the same"
Добавлено: 05.03.2012
Другие материалы по этой песне:

Страница создана 22.02.2012
http://primanota.ru/blindspott/phlex-chords.htm
Привет, Гость.
Предлагаем пройти революционный курс по гитаре.
Подарок от PrimaNota.Ru, забирай!