PrimaNota.ru - самый крупный в мире бесплатный архив песенных текстов, аккордов, табулатур и нот


Blindspott - Nil By Mouth - таба, видео

Регистрация Запомнить меня
Войти через:  Facebook Google Twitter Vk Yandex Mail.ru

Blindspott - Nil By Mouth - таба, видео

Печатать
Просмотров: 166
======================================
Blindspott.. New Zealand nu-metal band... just released debut album..
all songs available... http://blindspott.co.nz
======================================

Author/Band:Blindspott
Song:Nil By Mouth
Album:Blindspott
Tuning:Drop D (D A D G B E) Low to High
Tabbed by: KoRotz
Contact: epat_skateboarding@hotmail.com

Key
<> = harmonic
p  = pull of
h  = hammer on
*  = palm mute
x  = mute
/  = slide up
\  = slide down
^  = bend

tip: verses sound cool w/phaser

enjoy!

"And now for my next number...I'd like to return to the classics"

Intro - Strum w/Distortion 1x
---------------------------------------------------------------|
---------------------------------------------------------------|
--12-12-12-12-12-11-11-11-12-12-12-12--12-121212---------------|
---x--x--x--x--x--x--x--x--x--x--x--x---x--x-x-x121212121212---|
--10-10-10-10-10--9--9--9-10-10-10-10--10-101010101010101010---|        
---------------------------------------10-101010101010101010---|
1x
---------------------------------------------------------------------|
--12-12-12-12-12-10-10-10-12-12-12-12--------------------------------|
--12-12-12-12-12-11-11-11-12-12-12-12--12-121212--------------12/16--|
---x--x--x--x--x--x--x--x--x--x--x--x---x--x-x-x121212121212---x/-x--|
--10-10-10-10-10--9--9--9-10-10-10-10--10-101010101010101010--10/14--|  
---------------------------------------10-101010101010101010---------|

Verse 1 - Clean 1x
-----------------------------------------------------------------12-15--|
--------------------------------------------------------12-13-12--------|
--------12h14p12------------12--------12-14-12h14p12-14-----------------|
-----------------14-12h14------14-12------------------------------------|
------------------------------------------------------------------------|
------------------------------------------------------------------------|

Pre-chorus strum 2x
---------------------------------------------------------------|
---------------------------------------------------------------|
--12-12-12-12-12-11-11-11-12-12-12-12--12-121212---------------|
---x--x--x--x--x--x--x--x--x--x--x--x---x--x-x-x121212121212---|
--10-10-10-10-10--9--9--9-10-10-10-10--10-101010101010101010---|        
---------------------------------------10-101010101010101010---|

Chorus 2x w/distortion 2x
------------------------------------------------------------------------------------|
-------<3>---------------------<3>--------------------------------------------------|
-----------<3>---------------------<3>---------------5-55-4-44-5-55-4-44-5-55-4-44--|
---2-2------------2-2--<5>--2-2-----------2-2--<5>---5-55-5-55-5-55-5-55-5-55-5-55--|
---2-2------------2-2--<5>--2-2-----------2-2--<5>---3-33-3-33-3-33-3-33-3-33-3-33--|
---2-2----------0-2-2-------2-2---------0-2-2-------------2-22------2-22------2-22--|

Verse 2 - Clean 1x
-----------------------------------------------------------------------12-15\----|
-----------------------------------------------------------13p12----13-----------|
--------12h14p12------------------12-14--12h14p12----12-14-------12--------------|
-----------------14-12h14---12h14-----------------14-----------------------------|
---------------------------------------------------------------------------------|
---------------------------------------------------------------------------------|
verse continued...
-------------------------------------------------------|
-------------------------------------------------------|
----------------12-14-12-14-12-14-12h14p12-12----------|
--------12h14---------------------------------12h14----|
-------------------------------------------------------|
-------------------------------------------------------|

Pre-chorus w/distortion 2x
---------------------------------------------------------------|
---------------------------------------------------------------|
--12-12-12-12-12-11-11-11-12-12-12-12--12-121212---------------|
---x--x--x--x--x--x--x--x--x--x--x--x---x--x-x-x121212121212---|
--10-10-10-10-10--9--9--9-10-10-10-10--10-101010101010101010---|        
---------------------------------------10-101010101010101010---|

Chorus 2x w/distortion 2x
Chorus 2x w/distortion 2x
------------------------------------------------------------------------------------|
-------<3>---------------------<3>--------------------------------------------------|
-----------<3>---------------------<3>---------------5-55-4-44-5-55-4-44-5-55-4-44--|
---2-2------------2-2--<5>--2-2-----------2-2--<5>---5-55-5-55-5-55-5-55-5-55-5-55--|
---2-2------------2-2--<5>--2-2-----------2-2--<5>---3-33-3-33-3-33-3-33-3-33-3-33--|
---2-2----------0-2-2-------2-2---------0-2-2-------------2-22------2-22------2-22--|

Bridge 2x w/distortion 2x
------------------------------------------------------------------------------------|
------------------------------------------------------------------------------------|
---9999111111-12-12-----9999111111-777-----9999111111-12-12--12-12-12-14-14-14-14---|
-2-xxxx-x-x-x--x--x---2-xxxx-x-x-x-xxx---2-xxxx-x-x-x--x--x-2--x--x--x--x--x--x--x--|
-2-7777-9-9-9-10-10---2-7777-9-9-9-555---2-7777-9-9-9-10-10-2-10-10-10-12-12-12-12--|
-2------------------0-2----------------0-2------------------2-----------------------|

Chorus 2 w/distortion 1x
---------------------------------------------------------------|
--12-12-12-12-12-10-10-10-12-12-12-12--------------------------|
--12-12-12-12-12-11-11-11-12-12-12-12--12-121212---------------|
---x--x--x--x--x--x--x--x--x--x--x--x---x--x-x-x121212121212---|
--10-10-10-10-10--9--9--9-10-10-10-10--10-101010101010101010---|        
---------------------------------------10-101010101010101010---|

Chorus 2a w/distortion 4x
---------------------------------------------------------------|
---------------------------------------------------------------|
--12-12-12-12-12-11-11-11-12-12-12-12--12-121212---------------|
---x--x--x--x--x--x--x--x--x--x--x--x---x--x-x-x121212121212---|
--10-10-10-10-10--9--9--9-10-10-10-10--10-101010101010101010---|        
---------------------------------------10-101010101010101010---|

Fill 1x
-----------------------|
-----------------------|
-----------------------|
--10-10-1010101010-9---|
--10-10-1010101010-9---|
--10-10-1010101010-9---|

Outro - Clean w/delay 1x
---<12>---------------------------------------------15--------|
---<12>--12h13-12------12/13-12-----12-13-12------------------|
---<12>-----------14-------------14----------14-12------------|
--------------------------------------------------------------|
--------------------------------------------------------------|
--------------------------------------------------------------|
Sorry bout this last part theres so much delay that I can't hardly
hear anything so thats the best I could do m8!

Lyrics

And now for my next number, I'd like to return to the classics

This time when i feel my self open up
Even though i dont want to
And one side of me says kill her
But that just wont do
So i say we're through
So i say we're

Stop and stare what the *** you dont know me!
Stop and stare what the *** you dont know me!
I, DONT, KNOW, WHY!
Stop and stare what the *** you dont know me!
Stop and stare what the *** you dont know me!
I, DONT, KNOW, WHY!

I think its time to pack your things lets go
To a place where we both know
And dont worry, I'll drive real slow
Spend some time before we go
Spend some time before we go
So I say we're

Stop and stare what the *** you dont know me!
Stop and stare what the *** you dont know me!
I, DONT, KNOW, WHY!
Stop and stare what the *** you dont know me!
Stop and stare what the *** you dont know me!
I, DONT, KNOW, WHY!

Get up in your face with the sickness the quickness
Dialect, I inject
We'll be up talking, kissin all night
To make you feel right
So I say we're through
It doesn't sink in to you
Oh, please dont make me
LIKE YOU!

But that just wont do
So i say we're through

Stop and stare what the *** you dont know me!
Stop and stare what the *** you dont know me!
I, DONT, KNOW, WHY!
Stop and stare what the *** you dont know me!
Stop and stare what the *** you dont know me!
I, DONT, KNOW, WHY!

Shout out to MuNkY & mcud
Добавлено: 28.05.2012
Другие материалы по этой песне:

Страница создана 28.05.2012
http://primanota.ru/blindspott/nil-by-mouth-chords.htm
Привет, Гость.
Предлагаем пройти революционный курс по гитаре.
Подарок от PrimaNota.Ru, забирай!