PrimaNota.ru - самый крупный в мире бесплатный архив песенных текстов, аккордов, табулатур и нот


Blindspott - Lit Up - таба, видео

Регистрация Запомнить меня
Войти через:  Facebook Google Twitter Vk Yandex Mail.ru

Blindspott - Lit Up - таба, видео

Печатать
Просмотров: 151
Author/Band:Blindspott
Song:Lit Up
Album:Blindspott
Tuning:Drop D (D A D G B E) Low to High
Tabbed by: KoRotz
Contact: epat_skateboarding@hotmail.com

Key
<> = harmonic
p  = pull of
h  = hammer on
*  = palm mute
x  = mute
/  = slide up
\  = slide down
^  = bend

Intro w/delay
-----------------------------------------------------------------|
------------------------------------------------------(3x)-------|
--4-2-4-5--4-2-4-5--5-4-2--4-2-4-5--5-4-2-4-2--4-2-4-5-2-4-2-4-4-|
-----------------------------------------------------------------|
-----------------------------------------------------------------|
-----------------------------------------------------------------|

Intro carried on...w/delay     (3x)
-------------------------2-0-2-3-0-2-0-2-2------|
------------2-4-2p0-2p0-------------------------|
--4-2-4-5-5-------------------------------------|
------------------------------------------------|
------------------------------------------------|
------------------------------------------------|

Main Riff/pre-chorus
-------------------------|
-------------------------|
-------------------------|
-------------------------|
--4-2-4-5-2-4-2-4-424----|
--4-2-4-5-2-4-2-4-424----|

Verse w/distortion
-------------------------|----------|
-------------------------|----------|
-------------------------|----------|
-------------------------|--------0-|
--4-2-4-5-2-4-2-4-424----|--44444-0-|
--4-2-4-5-2-4-2-4-424----|--44444-0-|
  * * * * * * * * ***       ***** *

Main Riff/pre-chorus
-------------------------|
-------------------------|
-------------------------|
-------------------------|
--4-2-4-5-2-4-2-4-424----|
--4-2-4-5-2-4-2-4-424----|

Chorus w/distortion
------------------------------------------|
------------------------------------------|
------------------------------------------|
--101010101010101010-0-10-10101010101010--|
---8-8-8-8-8-8-8-8-8-0-10-10101010101010--|
---8-8-8-8-8-8-8-8-8-0-10-10101010101010--|

-----------------------------------------|
-----------------------------------------|
-----------------------------------------|
--101010101010101010-0-5-5555555555555---|
---8-8-8-8-8-8-8-8-8-0-3-3333333333333---|
---8-8-8-8-8-8-8-8-8-0-5-5555555555555---|


Fill w/distortion
--------------------0-----|
--------------------0-----|
--------------------0-----|
--------------------------|
--------------------------|
--4-2-4-5-2-4-2-4---------|

Main Riff/pre-chorus
-------------------------|
-------------------------|
-------------------------|
-------------------------|
--4-2-4-5-2-4-2-4-424----|
--4-2-4-5-2-4-2-4-424----|

Verse w/distortion
-------------------------|----------|
-------------------------|----------|
-------------------------|----------|
-------------------------|--------0-|
--4-2-4-5-2-4-2-4-424----|--44444-0-|
--4-2-4-5-2-4-2-4-424----|--44444-0-|
  * * * * * * * * ***       ***** *

Main Riff/pre-chorus
-------------------------|
-------------------------|
-------------------------|
-------------------------|
--4-2-4-5-2-4-2-4-424----|
--4-2-4-5-2-4-2-4-424----|

Chorus w/distortion
------------------------------------------|
------------------------------------------|
------------------------------------------|
--101010101010101010-0-10-10101010101010--|
---8-8-8-8-8-8-8-8-8-0-10-10101010101010--|
---8-8-8-8-8-8-8-8-8-0-10-10101010101010--|

-----------------------------------------|
-----------------------------------------|
-----------------------------------------|
--101010101010101010-0-5-5555555555555---|
---8-8-8-8-8-8-8-8-8-0-3-3333333333333---|
---8-8-8-8-8-8-8-8-8-0-5-5555555555555---|

Fill w/distortion
------------------------------------|
------------------------------------|
------------------------------------|
--11111111111111-1313131313131313---|
--11111111111111-1313131313131313---|
--11111111111111-1313131313131313---|

Fill w/distortion
--------------------0-----|
--------------------0-----|
--------------------0-----|
--------------------------|
--------------------------|
--4-2-4-5-2-4-2-4---------|

Main Riff/pre-chorus
-------------------------|
-------------------------|
-------------------------|
-------------------------|
--4-2-4-5-2-4-2-4-424----|
--4-2-4-5-2-4-2-4-424----|

Fill w/distortion
-----------|
-----------|
-----------|
--6--5--4--|
--4--3--2--|
--6--5--4--|

Interlude w/delay
-------------------------------------------------------------------------------|
---------------------------------------2-4-0-2p0-2p0------------2-4-0-2p0-2p0--|
--4-2-4-5-5--4-2-4-5-5-4-2--4-2-4-5------------------4-2-4-5-------------------|
-------------------------------------------------------------------------------|
-------------------------------------------------------------------------------|
-------------------------------------------------------------------------------|

continued...w/delay
e--2-0-2-3-0-2-0-2-2--2-0-2-0-2-3-0-2-0-2-2-|

Chorus w/distortion
------------------------------------------|
------------------------------------------|
------------------------------------------|
--101010101010101010-0-10-10101010101010--|
---8-8-8-8-8-8-8-8-8-0-10-10101010101010--|
---8-8-8-8-8-8-8-8-8-0-10-10101010101010--|

-----------------------------------------|
-----------------------------------------|
-----------------------------------------|
--101010101010101010-0-5-5555555555555---|
---8-8-8-8-8-8-8-8-8-0-3-3333333333333---|
---8-8-8-8-8-8-8-8-8-0-5-5555555555555---|

Main Riff w/distortion
-------------------------|
-------------------------|
-------------------------|
-------------------------|
--4-2-4-5-2-4-2-4-424----|
--4-2-4-5-2-4-2-4-424----|

Ending w/distortion
-------------0--|
-------------0--|
-------------0--|
--6--5--4----2--|
--4--3--2----2--|
--6--5--4----2--|

Lyrics

Hate is a gift, it's sick and twisted
There's a knife in your back and for fun I just TWIST IT!
I got the *** you need to get you lifted
Is a rock in the bone what it takes to get you blisted
Take the time to *** with your mind and don't thank me cause the pleasures all mine
Whats goin down don't waist your time 
Break your neck mutha ***er 
GET BACK IN LINE!

Get up, lit up and, GET THE *** UP!
GET UP, LIT UP, GET UP, LIT UP!
How the *** does it fell your minds mine now
GET UP, LIT UP, GET UP, LIT UP!

You can't slow it down
YOU CANT SLOW THIS DOWN!
You can't slow it down 
YOU CANT SLOW THIS DOWN!

Mindset has shifted violent whispers 
No control is in I turn on the rough 
SICKNESS!
Do you best but you cant resist this
Make your choice, inmate or witness
Your sanitys just a memory for me so 
*** what you've heard
*** what you've seen
Dont deny what you have inside 
From me run mutha ***er
YOU CANT HIDE!

Get up, get up and, GET THE *** UP!
GET UP, GET UP, GET UP, GET UP!
How the *** does it fell your minds mine now
GET UP, GET UP, GET UP, GET UP!

You can't slow it down
YOU CANT SLOW THIS DOWN!
You can't slow it down 
YOU CANT SLOW THIS DOWN!

Get up, get up and, GET THE *** UP!
GET UP, GET UP, GET UP, GET UP!
How the *** does it fell your minds mine now
GET UP, GET UP, GET UP, GET UP!

Turntables
"hes been scratching himself raw and nothing helps"
"do your best"..."cant resist"

You can't slow it down
YOU CANT STOP THIS NOW!
You can't slow it down 
YOU CANT STOP!
NOW!

That's it
Shoutout to Munky & mcud!
Добавлено: 27.03.2012
Другие материалы по этой песне:
  • Аккорды и текст

Страница создана 27.03.2012
http://primanota.ru/blindspott/lit-up-chords.htm
Привет, Гость.
Предлагаем пройти революционный курс по гитаре.
Подарок от PrimaNota.Ru, забирай!