PrimaNota.ru - самый крупный в мире бесплатный архив песенных текстов, аккордов, табулатур и нот


Blindspott - Just Know - таба, видео

Регистрация Запомнить меня
Войти через:  Facebook Google Twitter Vk Yandex Mail.ru

Blindspott - Just Know - таба, видео

Печатать
Просмотров: 139
JUST KNOW
---------
Artist - Blindspott
Album - End The Silence
Guitarists - Marcus Powell & Brandon Reihana
Tab By - Jeremy Buswell (jeremy_buswell@hotmail.com)
____________________________________________________________________________

INTRO [Play Twice]
E ---------------------------------|---------------------------------|
B -0---0-0---0-0---0-0---0-0---0-0-|-0---0-0-0---0-0-0---0-0-0---0-0-|
G -0---0-0---0-0---0-0---0-0---0-0-|-0---0-0-0---0-0-0---0-0-0---0-0-|
D -12----------12----------12------|-9-------9------/16------16------|
A -10----------10----------10------|-10------10-----/14------14------|
E ---------------------------------|---------------------------------|
   1 e + a 2 e + a 3 e + a 4 e + a | 1 e + a 2 e + a 3 e + a 4 e + a |
                                                                     |
E ---------------------------------|---------------------------------|
B ---------------------------------|---------------------------------|
G -14----------16------------------|-14----------16------------------|
D ---------------------------------|---------------------------------|
A ---------------------------------|---------------------------------|
E ---------------------------------|---------------------------------|
   1 e + a 2 e + a 3 e + a 4 e + a | 1 e + a 2 e + a 3 e + a 4 e + a |

E ---------------------------------|---------------------------------|
B -0---0-0---0-0---0-0---0-0---0-0-|-0---0-0---0-0---0-0---0-0---0-0-|
G -0---0-0---0-0---0-0---0-0---0-0-|-0---0-0---0-0---0-0---0-0---0-0-|
D -9-----------9-----------9-------|-9-----------9-----------9-------|
A -7-----------7-----------7-------|-7-----------7-----------7-------|
E ---------------------------------|---------------------------------|
   1 e + a 2 e + a 3 e + a 4 e + a | 1 e + a 2 e + a 3 e + a 4 e + a |
                                                                     |
E ---------------------------------|---------------------------------|
B ---------------------------------|-15------------------------------|
G -14----------16------------------|---------------------------------|
D ---------------------------------|---------------------------------|
A ---------------------------------|---------------------------------|
E ---------------------------------|---------------------------------|
   1 e + a 2 e + a 3 e + a 4 e + a | 1 e + a 2 e + a 3 e + a 4 e + a |

FIRST VERSE
E ---------------------------------|---------------------------------|
B -0---0-0---0-0---0-0---0-0---0-0-|-0---0-0---0-0---0-0---0-0---0-0-|
G -0---0-0---0-0---0-0---0-0---0-0-|-0---0-0---0-0---0-0---0-0---0-0-|
D -12----------12----------12------|-9-----------9-----------9-------|
A -10----------10----------10------|-10----------10----------10------|
E ---------------------------------|---------------------------------|
   1 e + a 2 e + a 3 e + a 4 e + a | 1 e + a 2 e + a 3 e + a 4 e + a |
  ___________________________________________________________________
 |1.                                                                 |
E ---------------------------------|---------------------------------|
B -0---0-0---0-0---0-0---0-0---0-0-|-0---0-0---0-0---0-0---0-0---0-0-|
G -0---0-0---0-0---0-0---0-0---0-0-|-0---0-0---0-0---0-0---0-0---0-0-|
D -9-----------9-----------9-------|-5-----------5-----------5-------|
A -7-----------7-----------7-------|-7-----------7-----------7-------|
E ---------------------------------|---------------------------------|
   1 e + a 2 e + a 3 e + a 4 e + a | 1 e + a 2 e + a 3 e + a 4 e + a |
  ___________________________________________________________________
 |2.                                                                 |
E ---------------------------------|---------------------------------|
B -0---0-0---0-0---0-0---0-0---0-0-|-0---0-0-0---0-0-0---0-0-0---0-0-|
G -0---0-0---0-0---0-0---0-0---0-0-|-0---0-0-0---0-0-0---0-0-0---0-0-|
D -9-----------9-----------9-------|-5-------5-------7-------7-------|
A -7-----------7-----------7-------|-7-------7-------5-------5-------|
E ---------------------------------|---------------------------------|
   1 e + a 2 e + a 3 e + a 4 e + a | 1 e + a 2 e + a 3 e + a 4 e + a |

PRECHORUS
E ---------------------------------|---------------------------------|
B -0---0-0---0-0---0-0---0-0---0-0-|-0---0-0---0-0---0-0---0-0---0-0-|
G -0---0-0---0-0---0-0---0-0---0-0-|-0---0-0---0-0---0-0---0-0---0-0-|
D -5-----------5-----------5-------|-5-----------5-----------5-------|
A -3-----------3-----------3-------|-3-----------3-----------3-------|
E ---------------------------------|---------------------------------|
   1 e + a 2 e + a 3 e + a 4 e + a | 1 e + a 2 e + a 3 e + a 4 e + a |
  ___________________________________________________________________
 |1.                                                                 |
E ---------------------------------|---------------------------------|
B -0---0-0---0-0---0-0---0-0---0-0-|-0---0-0---0-0---0-0---0-0---0-0-|
G -0---0-0---0-0---0-0---0-0---0-0-|-0---0-0---0-0---0-0---0-0---0-0-|
D -5-----------5-----------5-------|-5-----------5-----------5-------|
A -5-----------5-----------5-------|-5-----------5-----------5-------|
E -3-----------3-----------3-------|-3-----------3-----------3-------|
   1 e + a 2 e + a 3 e + a 4 e + a | 1 e + a 2 e + a 3 e + a 4 e + a |
  ___________________________________________________________________
 |2.                                                                 |
E ---------------------------------|---------------------------------|
B -0---0-0---0-0---0-0---0-0---0-0-|-0---0-0-0---0-0-0---0-0-0---0-0-|
G -0---0-0---0-0---0-0---0-0---0-0-|-0---0-0-0---0-0-0---0-0-0---0-0-|
D /12----------12----------12------|-9-------9-------7-------7-------|
A /10----------10----------10------|-10------10------10------10------|
E ---------------------------------|---------------------------------|
   1 e + a 2 e + a 3 e + a 4 e + a | 1 e + a 2 e + a 3 e + a 4 e + a |

CHORUS
E -------------0-----------0-------|---------------------------------|
B -0---0-0---0-0-----0---0-0---0-0-|-0---0-0---0-0---0-0---0-0---0-0-|
G -0---0-0---0-0-----0---0-0---0-0-|-0---0-0---0-0---0-0---0-0---0-0-|
D -9-----------9-----------9-------|-5-----------5-----------5-------|
A -7-----------7-----------7-------|-3-----------3-----------3-------|
E -0-------------------------------|---------------------------------|
   1 e + a 2 e + a 3 e + a 4 e + a | 1 e + a 2 e + a 3 e + a 4 e + a |
                                                                     |
E ---------------------------------|---------------------------------|
B ---------------------------------|---------------------------------|
G -16------------------------------|-17------------------------------|
D ---------------------------------|---------------------------------|
A ---------------------------------|---------------------------------|
E ---------------------------------|---------------------------------|
   1 e + a 2 e + a 3 e + a 4 e + a | 1 e + a 2 e + a 3 e + a 4 e + a |

E ---------------------------------|---------------------------------|
B -0---0-0---0-0---0-0---0-0---0-0-|-0---0-0---0-0---0-0---0-0---0-0-|
G -0---0-0---0-0---0-0---0-0---0-0-|-0---0-0---0-0---0-0---0-0---0-0-|
D /12----------12----------12------|-9-----------9-----------9-------|
A /10----------10----------10------|-10----------10----------10------|
E ---------------------------------|---------------------------------|
   1 e + a 2 e + a 3 e + a 4 e + a | 1 e + a 2 e + a 3 e + a 4 e + a |
                                                                     |
E ---------------------------------|---------------------------------|
B /15------------------------------|/12------------------------------|
G ---------------------------------|---------------------------------|
D ---------------------------------|---------------------------------|
A ---------------------------------|---------------------------------|
E ---------------------------------|---------------------------------|
   1 e + a 2 e + a 3 e + a 4 e + a | 1 e + a 2 e + a 3 e + a 4 e + a |

E -------------0-----------0-------|---------------------------------|
B -0---0-0---0-0-----0---0-0---0-0-|-0---0-0---0-0---0-0---0-0---0-0-|
G -0---0-0---0-0-----0---0-0---0-0-|-0---0-0---0-0---0-0---0-0---0-0-|
D -9-----------9-----------9-------|-5-----------5-----------5-------|
A -7-----------7-----------7-------|-3-----------3-----------3-------|
E -0-------------------------------|---------------------------------|
   1 e + a 2 e + a 3 e + a 4 e + a | 1 e + a 2 e + a 3 e + a 4 e + a |
                                                                     |
E ---------------------------------|---------------------------------|
B ---------------------------------|---------------------------------|
G -12------------------------------|-14------------------------------|
D ---------------------------------|---------------------------------|
A ---------------------------------|---------------------------------|
E ---------------------------------|---------------------------------|
   1 e + a 2 e + a 3 e + a 4 e + a | 1 e + a 2 e + a 3 e + a 4 e + a |

E ---------------------------------|---------------------------------|
B -0---0-0---0-0---0-0---0-0---0-0-|-0---0-0-0---0-0-0---0-0-0---0-0-|
G -0---0-0---0-0---0-0---0-0---0-0-|-0---0-0-0---0-0-0---0-0-0---0-0-|
D /12----------12----------12------|-9-------9-------7-------7-------|
A /10----------10----------10------|-10------10------10------10------|
E ---------------------------------|---------------------------------|
   1 e + a 2 e + a 3 e + a 4 e + a | 1 e + a 2 e + a 3 e + a 4 e + a |
                                                                     |
E ---------------------------------|---------------------------------|
B ---------------------------------|---------------------------------|
G -12------------------------------|-----------------11------11------|
D ---------------------------------|---------------------------------|
A ---------------------------------|---------------------------------|
E ---------------------------------|---------------------------------|
   1 e + a 2 e + a 3 e + a 4 e + a | 1 e + a 2 e + a 3 e + a 4 e + a |

E -------------0-----------0-------|---------------------------------|
B -0---0-0---0-0-----0---0-0---0-0-|-0---0-0---0-0---0-0---0-0---0-0-|
G -0---0-0---0-0-----0---0-0---0-0-|-0---0-0---0-0---0-0---0-0---0-0-|
D -9-----------9-----------9-------|-5-----------5-----------5-------|
A -7-----------7-----------7-------|-3-----------3-----------3-------|
E -0-------------------------------|---------------------------------|
   1 e + a 2 e + a 3 e + a 4 e + a | 1 e + a 2 e + a 3 e + a 4 e + a |
                                                                     |
E ---------------------------------|---------------------------------|
B ---------------------------------|---------------------------------|
G /9-------------------------------|---------------------------------|
D ---------------------------------|---------------------------------|
A ---------------------------------|---------------------------------|
E ---------------------------------|---------------------------------|
   1 e + a 2 e + a 3 e + a 4 e + a | 1 e + a 2 e + a 3 e + a 4 e + a |

E ---------------------------------|---------------------------------|
B -0---0-0---0-0---0-0---0-0---0-0-|-0---0-0---0-0---0-0---0-0---0-0-|
G -0---0-0---0-0---0-0---0-0---0-0-|-0---0-0---0-0---0-0---0-0---0-0-|
D /12----------12----------12------|-12----------12----------12------|
A /10----------10----------10------|-10----------10----------10------|
E ---------------------------------|---------------------------------|
   1 e + a 2 e + a 3 e + a 4 e + a | 1 e + a 2 e + a 3 e + a 4 e + a |
                                                                     |
E ---------------------------------|---------------------------------|
B ---------------------------------|---------------------------------|
G /12------------------------------|---------------------------------|
D ---------------------------------|---------------------------------|
A ---------------------------------|---------------------------------|
E ---------------------------------|---------------------------------|
   1 e + a 2 e + a 3 e + a 4 e + a | 1 e + a 2 e + a 3 e + a 4 e + a |

|^^^^^^^^^^^^^^^^^^^^^^^^^-REPEAT-FROM-INTRO-^^^^^^^^^^^^^^^^^^^^^^^^|

THEN....
E -------------0-----------0-------|---------------------------------|
B -0---0-0---0-0-----0---0-0---0-0-|-0---0-0---0-0---0-0---0-0---0-0-|
G -0---0-0---0-0-----0---0-0---0-0-|-0---0-0---0-0---0-0---0-0---0-0-|
D -9-----------9-----------9-------|-5-----------5-----------5-------|
A -7-----------7-----------7-------|-3-----------3-----------3-------|
E -0-------------------------------|---------------------------------|
   1 e + a 2 e + a 3 e + a 4 e + a | 1 e + a 2 e + a 3 e + a 4 e + a |
                                                                     |
E ---------------------------------|---------------------------------|
B ---------------------------------|---------------------------------|
G -16------------------------------|-17------------------------------|
D ---------------------------------|---------------------------------|
A ---------------------------------|---------------------------------|
E ---------------------------------|---------------------------------|
   1 e + a 2 e + a 3 e + a 4 e + a | 1 e + a 2 e + a 3 e + a 4 e + a |

E ---------------------------------|---------------------------------|
B -0---0-0---0-0---0-0---0-0---0-0-|-0---0-0-0---0-0-0---0-0-0---0-0-|
G -0---0-0---0-0---0-0---0-0---0-0-|-0---0-0-0---0-0-0---0-0-0---0-0-|
D /12----------12----------12------|-9-------9-------7-------7-------|
A /10----------10----------10------|-10------10------10------10------|
E ---------------------------------|---------------------------------|
   1 e + a 2 e + a 3 e + a 4 e + a | 1 e + a 2 e + a 3 e + a 4 e + a |
                                                                     |
E ---------------------------------|---------------------------------|
B -15------------------------------|---------------------------------|
G ---------------------------------|---------------------------------|
D ---------------------------------|---------------------------------|
A ---------------------------------|---------------------------------|
E ---------------------------------|---------------------------------|
   1 e + a 2 e + a 3 e + a 4 e + a | 1 e + a 2 e + a 3 e + a 4 e + a |

E -------------0-----------0-------|---------------------------------|
B -0---0-0---0-0-----0---0-0---0-0-|-0---0-0---0-0---0-0---0-0---0-0-|
G -0---0-0---0-0-----0---0-0---0-0-|-0---0-0---0-0---0-0---0-0---0-0-|
D -9-----------9-----------9-------|-5-----------5-----------5-------|
A -7-----------7-----------7-------|-3-----------3-----------3-------|
E -0-------------------------------|---------------------------------|
   1 e + a 2 e + a 3 e + a 4 e + a | 1 e + a 2 e + a 3 e + a 4 e + a |
                                                                     |
E ---------------------------------|---------------------------------|
B ---------------------------------|---------------------------------|
G -16------------------------------|-17------------------------------|
D ---------------------------------|---------------------------------|
A ---------------------------------|---------------------------------|
E ---------------------------------|---------------------------------|
   1 e + a 2 e + a 3 e + a 4 e + a | 1 e + a 2 e + a 3 e + a 4 e + a |

E ---------------------------------|---------------------------------|
B -0---0-0---0-0---0-0---0-0---0-0-|-0---0-0---0-0---0-0---0-0---0-0-|
G -0---0-0---0-0---0-0---0-0---0-0-|-0---0-0---0-0---0-0---0-0---0-0-|
D /12----------12----------12------|-12----------12----------12------|
A /10----------10----------10------|-10----------10----------10------|
E ---------------------------------|---------------------------------|
   1 e + a 2 e + a 3 e + a 4 e + a | 1 e + a 2 e + a 3 e + a 4 e + a |
                                                                     |
E ---------------------------------|---------------------------------|
B -15-HOLD-&-VIBRATO-UNTIL-END-----|---------------------------------|
G ---------------------------------|---------------------------------|
D ---------------------------------|---------------------------------|
A ---------------------------------|---------------------------------|
E ---------------------------------|---------------------------------|
   1 e + a 2 e + a 3 e + a 4 e + a | 1 e + a 2 e + a 3 e + a 4 e + a |
                                                               
E ---------------------------------|---------------------------------|
B -0---0-0---0-0---0-0---0-0---0-0-|-0---0-0---0-0---0-0---0-0---0-0-|
G -0---0-0---0-0---0-0---0-0---0-0-|-0---0-0---0-0---0-0---0-0---0-0-|
D -12----------12----------12------|-12----------12----------12------|
A -10----------10----------10------|-10----------10----------10------|
E ---------------------------------|---------------------------------|
   1 e + a 2 e + a 3 e + a 4 e + a | 1 e + a 2 e + a 3 e + a 4 e + a |

E ---------------------------------|---------------------------------|
B -0---0-0---0-0---0-0---0-0---0-0-|-0---0-0---0-0---0-0---0-0---0-0-|
G -0---0-0---0-0---0-0---0-0---0-0-|-0---0-0---0-0---0-0---0-0---0-0-|
D -12----------12----------12------|-12----------12----------12------|
A -10----------10----------10------|-10----------10----------10------|
E ---------------------------------|---------------------------------|
   1 e + a 2 e + a 3 e + a 4 e + a | 1 e + a 2 e + a 3 e + a 4 e + a |
                                                                     |
E ---------------------------------|---------------------------------|
B ---------------------------------|---------------------------------|
G -------------12------------------|-14----------12------------------|
D -12------------------------------|-12----------12------------------|
A ---------------------------------|---------------------------------|
E ---------------------------------|---------------------------------|
   1 e + a 2 e + a 3 e + a 4 e + a | 1 e + a 2 e + a 3 e + a 4 e + a |

E ---------------------------------|---------------------------------|
B -0-------------------------------|---------------------------------|
G -0--LET--------------------------|---------------------------------|
D -12-RING-------------------------|---------------------------------|
A -10------------------------------|---------------------------------|
E ---------------------------------|---------------------------------|
   1 e + a 2 e + a 3 e + a 4 e + a | 1 e + a 2 e + a 3 e + a 4 e + a |
                                                                     |
E ---------------------------------|---------------------------------|
B ---------------------------------|---------------------------------|
G -------------12------------------|-14----------12------------------|
D -12------------------------------|-12----------12--------------9---|
A ---------------------------------|---------------------------------|
E ---------------------------------|---------------------------------|
   1 e + a 2 e + a 3 e + a 4 e + a | 1 e + a 2 e + a 3 e + a 4 e + a |

E ---------------------------------|---------------------------------|
B ---------------------------------|---------------------------------|
G -------------12------------------|-14----------12------------------|
D -12------------------------------|-12----------12------------------|
A ---------------------------------|---------------------------------|
E ---------------------------------|---------------------------------|
   1 e + a 2 e + a 3 e + a 4 e + a | 1 e + a 2 e + a 3 e + a 4 e + a |

E ---------------------------------|---------------------------------|
B ---------------------------------|---------------------------------|
G -14----------12------------------|-12------------------------------|
D -12----------12------------------|-12------------------------------|
A ---------------------------------|---------------------------------|
E ---------------------------------|---------------------------------|
   1 e + a 2 e + a 3 e + a 4 e + a | 1 e + a 2 e + a 3 e + a 4 e + a |

END

NOTE: Truly a beautiful song by NZ's best band. 
      Make sure you let the chords ring out
      underneath the open B & G strings, and accent those chords also. 
      I've included the second part over the intro as well as the lead    
      guitar in the chorus, chuck some distortion & some reverb on, use a
      little vibrato & let those notes wail. I've also included a little 
      guitar part that you can hear during the outro. Feel free to email me  
      with praise :-D

www.darkhorsemusic.com.au
www.myspace.com/darkhorseau
Добавлено: 06.05.2012
Другие материалы по этой песне:
  • Аккорды и текст

Страница создана 06.05.2012
http://primanota.ru/blindspott/just-know-chords.htm
Привет, Гость.
Предлагаем пройти революционный курс по гитаре.
Подарок от PrimaNota.Ru, забирай!