PrimaNota.ru - самый крупный в мире бесплатный архив песенных текстов, аккордов, табулатур и нот


Blindspott - Coma - таба, видео

Регистрация Запомнить меня
Войти через:  Facebook Google Twitter Vk Yandex Mail.ru

Blindspott - Coma - таба, видео

Печатать
Просмотров: 140
-------------------------------------------------------------------------------
                             Coma - Blindspott
-------------------------------------------------------------------------------
Tabbed by:AndrewU
Email:kdxandy@hotmail.com

Tuning: Drop D tuning DADGBE

Intro: He does this at their last show, live at the Power station. Picked on the 
strings up by the tuning nuts
e|--------*0-----------------------------------------------------------------|
B|------*0-------------------------------------------------------------------|
G|----*0---------------------------------------------------------------------|
D|--*0-----------------------------------------------------------------------|
A|---------------------------------------------------------------------------|
D|---------------------------------------------------------------------------|

Main riff: Heavy Distortion with palm muting
e|---------------------------------------------------------------------------|
B|---------------------------------------------------------------------------|
G|--xx11111110101011111111111111131313xx-------------------------------------|
D|--xx13131313131313131313131313131313xx-------------------------------------|
A|---------------------------------------------------------------------------|
D|---------------------------------------------------------------------------|

Pre Chorus:
e|---------------------------------------------------------------------------|
B|---------------------------------------------------------------------------|
G|---------------------------------------------------------------------------|
D|--1-1-1-2-2-2-1-1-1-2-2-2-1-1-1-2-2-2-1-1-1-2-2-2--------------------------|
A|--1-1-1-2-2-2-1-1-1-2-2-2-1-1-1-2-2-2-1-1-1-2-2-2--------------------------|
D|--1-1-1-2-2-2-1-1-1-2-2-2-1-1-1-2-2-2-1-1-1-2-2-2--------------------------|

Chorus:
e|---------------------------------------------------------------------------|
B|---------------------------------------------------------------------------|
G|---------------------------------------------------------------------------|
D|--11-11-11--7-7-7--9-9-9-9-9-----------------------------------------------|
A|--11-11-11--7-7-7--9-9-9-9-9-----------------------------------------------|
D|--11-11-11--7-7-7--9-9-9-9-9-----------------------------------------------|
Watch them as they fall.....

Little lead guitar fill after chorus:
e|---------------------------------------------------------------------------|
B|---------------------------------------------------------------------------|
G|---------------------------------------------------------------------------|
D|-----------------------~3~-------------------------------------------------|
A|--1-6-8-8-6-8-9-8-6-4-2----------------------------------------------------|
D|---------------------------------------------------------------------------|

Solo:
e|---------------------------------------------------------------------------|
B|---------------------------------------------------------------------------|
G|--99999911111113131313141313-----1414141414161616161818181816161414--------|
D|------------------------------X2-------------------------------------------|
A|--77777799999911111111111111-----1212121212141414141616161614141212--------|
D|---------------------------------------------------------------------------|

e|---------------------------------------------------------------------------|
B|---------------------------------------------------------------------------|
G|--1111111111-999999--------------------------------------------------------|
D|---------------------------------------------------------------------------|
A|--9-9-9-9-9--777777--------------------------------------------------------|
D|---------------------------------------------------------------------------|

Thing before chorus:
e|---------------------------------------------------------------------------|
B|---------------------------------------------------------------------------|
G|---------------------------------------------------------------------------|
D|--11-11-X--11-11-11-11-11-11-11-X2-----------------------------------------|
A|--11-11-X--11-11-11-11-11-11-11-------------------------------------------|
D|--11-11-X--11-11-11-11-11-11-11-------------------------------------------|
Its over now....




Outro:
e|---------------------------------------------------------------------------|
B|---------------------------------------------------------------------------|
G|---------------------------------------------------------------------------|
D|--1-1-X--1-1---------------------------------------------------------------|
A|--1-1-X--1-1---------------------------------------------------------------|
D|--1-1-X--1-1---------------------------------------------------------------|
Its over!...

This is a mean song! Hope you enjoy

| /  slide up
| \  slide down
| h  hammer-on
| p  pull-off
| ~  vibrato
| +  harmonic
| x  Mute note
===============================================================================

Добавлено: 21.04.2012
Другие материалы по этой песне:
  • Аккорды и текст

Страница создана 21.04.2012
http://primanota.ru/blindspott/coma-chords.htm
Привет, Гость.
Предлагаем пройти революционный курс по гитаре.
Подарок от PrimaNota.Ru, забирай!