PrimaNota.ru - самый крупный в мире бесплатный архив песенных текстов, аккордов, табулатур и нот


Blindside - You Can Hide It - текст песни, таба, видео

Регистрация Запомнить меня
Войти через:  Facebook Google Twitter Vk Yandex Mail.ru

Blindside - You Can Hide It - текст песни, таба, видео

Печатать
Просмотров: 121
Album: Silence
Tabbed By: Brian Benzinger
Tuning: E-flat (Eb,Ab,Db,Gb,Bb,Eb)

Ok people, heres the story. This is my first ever tab (unless you count the one that I
to do Chop Suey! but got the tuning completely messed up) so don't be too hard on it. I'd
like any comments or constructional criticism to help me in my later tabs. This song's
easy, but no one's ever tabbed it before so I thought I'd try. Note:some notes are
because you can't hear them, and some strums are off so just make this song your own.
You can email me at bb42392@aim.com

/=slide

//Edit\\8-6-06 I changed the ending of the intro/verse
//Edit\\6-11-10 Edited most of the tab to be correct

Intro/Verse 1 (2x)
-|--------------------------------------------------------------|
-|--------------------------------------------------------------|
-|--------------------------------------------------------------|
-|-9---9---9---9---10--10--9---9---10---10---9--7--12--7--6--7--|
-|--------------------------------------------------------------|
-|--00--00--00--00---0---0--00--00---00---00--0--0---0--0--0--0-|

----------------------------------------------------------|
----------------------------------------------------------|
----------------------------------------------------------|
-6---6---6---6---7--7--6---6---6---6---7--7--9--7--9--10--|
----------------------------------------------------------|
--00--00--00--00--0--0--00--00--00--00--0--0--0--0--0---0-|


"But stand still for a while"
-|--------------------|
-|--------------------|
-|-14-14-14-14-13-13--|
-|-14-14-14-14-14-14--|
-|--------------------|
-|--------------------|

Chorus (There is a lot of noise in this part, sounds pretty close though)
-|---------------------------------------------------------------------|
-|---------------------------------------------------------------------|
-|-5-5-5-5-5------------5-5-5-5-5------------------5-5-5-5-5-----------|
-|-5-5-5-5-5---2-2--2~--5-5-5-5-5---2-2--4-5-7-2---5-5-5-5-5---2-2--2~-|
-|-3-3-3-3-3---2-2--2~--3-3-3-3-3---2-2--4-5-7-2---3-3-3-3-3---2-2--2~-|
-|-------------0-0--0~--------------0-0--2-3-5-0---------------0-0--0~-|

 ---------------------------|
 ---------------------------|
 -5-5-5-5-5-----------------|
 -5-5-5-5-5---2-2--2-5-7-2~-|
 -3-3-3-3-3---2-2--2-5-7-2~-|
 -------------0-0--0-3-5-0~-|

Intro/Verse 2 (This is same as Intro/Verse 1)

"But stand still for a while"

Chorus

Bridge (2x)
-|--------------------------------------------------------------------|
-|--------------------------------------------------------------------|
-|---16---17---16---14---12---7-/-9-----16---17---16---14---12---7--5-|
-|---x----x----x----x----x----x---x-----x----x----x----x----x----x--x-|
-|---14---15---14---12---10---5-/-7-----14---15---14---12---10---5--3-|
-|-0----0----0----0----0--------------0----0----0----0----0-----------|

Then..."Hide it, FIGHT IT!"
-|------------|
-|------------|
-|-5-5---5-5--|
-|-5-5---5-5--|
-|-3-3---3-3--|
-|------------|

Chorus (this one is just missing the beginning of the other choruses)
-|----------------------------------------------------------------------|
-|----------------------------------------------------------------------|
-|----------5-5-5-5-5------------------5-5-5-5-5-------------5-5-5-5-5--|
-|-2-2--2~--5-5-5-5-5---2-2--4-5-7-2---5-5-5-5-5---2-2--2~---5-5-5-5-5--|
-|-2-2--2~--3-3-3-3-3---2-2--4-5-7-2---3-3-3-3-3---2-2--2~---3-3-3-3-3--|
-|-0-0--0~--------------0-0--2-3-5-0---------------0-0--0~--------------|

Ending
-|-------------|
-|-------------|
-|-------------|
-|-2-2--5-7-2--|
-|-2-2--5-7-2--|
-|-0-0--3-5-0--|
Добавлено: 25.06.2012
Другие материалы по этой песне:

Страница создана 04.03.2012
http://primanota.ru/blindside/you-can-hide-it-chords.htm
Привет, Гость.
Предлагаем пройти революционный курс по гитаре.
Подарок от PrimaNota.Ru, забирай!