PrimaNota.ru - самый крупный в мире бесплатный архив песенных текстов, аккордов, табулатур и нот


Blindside - Vow Of Silence - текст песни, таба, видео

Регистрация Запомнить меня
Войти через:  Facebook Google Twitter Vk Yandex Mail.ru

Blindside - Vow Of Silence - текст песни, таба, видео

Печатать
Просмотров: 153
-------------------------------------------------------------------------------
                             Vow Of Silence - Blindside
-------------------------------------------------------------------------------
Tabbed by:Austin Harris
Email:aust1n@cox.net

Tuning:E A D G B e
                       Intro
e|---------------------------------------------------------------------------|
B|---------------------------------------------------------------------------|
G|---------------------------------------------------------------------------|
D|--------3------------4--5------3--6--5--------3---------3-----5--6---------|
A|--4--3--1--4---4--3--2--3---4--1--4--3--4--3--1--3---3--1--3--3--4--4--3---|
E|--2--1-----2---2--1---------2-----------2--1-----1---1-----1--------2--1---|

e|---------------------------------------------------------------------------|
B|---------------------------------------------------------------------------|
G|---------------------------------------------------------------------------|
D|--6--5--------3------------------------------------------------------------|
A|--4--3--3--3--1--3---------------------------------------------------------|
E|--------1--1-----1---------------------------------------------------------|
  
                    
e|---------------------------------------------------------------------------|
B|---------------------------------------------------------------------------|
G|---------------------------------------------------------------------------|x2
D|--------------3-----3------------------------------------------------------|
A|--3~--3-3-3~--1-4~--1-4~---------------------------------------------------|
E|--1~--1-1-1~----2~----2~---------------------------------------------------|
                    
                      Verse
e|--------x-----------------x------------------------------------------------|
B|--------x-----------------x------------------------------------------------|
G|--------x-----------------x------------------------------------------------|x2
D|--------x-----------------x------------------------------------------------|
A|--5--4--x--5--4--2--5--4--x------------------------------------------------|
E|--3--2--x--3--3--0--3--2--x------------------------------------------------|

e|--x--x---------------------------------------------------------------------|
B|--x--x---------------------------------------------------------------------|
G|--x--x---------------------------------------------------------------------|
D|--x--x---------------------------------------------------------------------|
A|--x--x--3--3--3-3-3--3-3-3-------------------------------------------------|
E|--x--x--1--1--1-1-1--1-1-1-------------------------------------------------|
                      
                     Chorus
e|---------------------------------------------------------------------------|
B|---------------------------------------------------------------------------|
G|---------------------------------------------------------------------------|
D|-----8--------------------8------------------------------------------------|
A|--4--6--8--9--5--4--3--4--6--8--9--5--4--3--4------------------------------|
E|--2-----6--7--3--2--1--2-----6--7--3--2--1--2------------------------------|

                     Bridge
e|---------------------------------------------------------------------------|
B|---------------------------------------------------------------------------|
G|---------------------------------------------------------------------------|
D|---------------------------------------------------------------------------|
A|--3---3--3--4--3--4--------------------------------------------------------|
E|--1---1--1--2--1--2--------------------------------------------------------|


| /  slide up
| \  slide down
| h  hammer-on
| p  pull-off
| ~  let ring
| +  harmonic
| x  Mute note
===============================================================================
Добавлено: 17.06.2012
Другие материалы по этой песне:
  • Аккорды и текст

Страница создана 17.06.2012
http://primanota.ru/blindside/vow-of-silence-chords.htm
Привет, Гость.
Предлагаем пройти революционный курс по гитаре.
Подарок от PrimaNota.Ru, забирай!