PrimaNota.ru - самый крупный в мире бесплатный архив песенных текстов, аккордов, табулатур и нот


Blindside - Superman - текст песни, таба, бас-таба, видео

Регистрация Запомнить меня
Войти через:  Facebook Google Twitter Vk Yandex Mail.ru

Blindside - Superman - текст песни, таба, бас-таба, видео

Печатать
Просмотров: 210
----------------------------------------------------------------------------
                       Superman - Blindside
----------------------------------------------------------------------------
tabbed by: sam vieritz
email: charger211@hotmail.com

tuning: standard
 h=hammer on
 p=pull off
 x=mute note

 G'day, this is my first attempted at tabbing so I hope it's good.

Intro and verse:
e|----------------------------------|
B|----------------------------------|
G|----------------------------------|
D|--------0-2-5h6p7-------0-2-5-----| x6
A|----------------------------------|
E|-00-0--0---------00-0--0----------|

Pre-chorus:
e|-------------------------------------|
B|-------------------------------------|
G|-------------------------------------|
D|--------0-2-5h6p5-7--------0-2-5--5--| x4
A|-------------------------------------|
E|-00-0---------------00-0-------------|

chorus:
e|------------------------------|
B|------------------------------|
G|------------------------------|
D|-2-2-x--5-7-8---2-2-x--5-4-4--|                                           
A|-2-2-x--5-7-8---2-2-x--5-4-4--| x4
E|-0-0-x--3-5-6---0-0-x--3-2-2--|

e|-----------------------------------------------|
B|-----------------------------------------------|
G|-----------------------------------------------|
D|-2-2-x--5-7-8-888-888-888-8-10-8--777-777-777--|
A|-2-2-x--5-7-8-888-888-888-8-10-8--777-777-777--|
E|-0-0-x--3-5-6-666-666-666-6-8--6--555-555-555--|

e|----------------|
B|-------------5--|  
G|----------5-----|  
D|-------5--------|
A|----5-----------|
E|-0--------------|

verse:
e|---------------------------------|
B|---------------------------------|
G|---------------------------------|
D|--------0-2-5h6p5-7-------0-2-5--| x4
A|---------------------------------|
E|-00-0--0-----------00-0--0-------|

pre-chorus:
e|------------------------------------|
B|------------------------------------|
G|------------------------------------|
D|--------0-2-5h6p5-7-------0-2-5--5--| x4
A|------------------------------------|
E|-00-0--------------00-0-------------|

chorus:
e|------------------------------|
B|------------------------------|
G|------------------------------|
D|-2-2-x--5-7-8---2-2-x--5-4-4--| x4
A|-2-2-x--5-7-8---2-2-x--5-4-4--|                                       
E|-0-0-x--3-5-6---0-0-x--3-2-2--|


e|------------------------------------------|
B|------------------------------------------|
G|------------------------------------------|
D|-2-2-x--5-7-8-888-888-888-8-10-8-777-777--|
A|-2-2-x--5-7-8-888-888-888-8-10-8-777-777--|
E|-0-0-x--3-5-6-666-666-666-6-8--6-555-555--|

outro:
e|-------------------------------------------------|
B|-------------------------------------------------|
G|-------------------------------------------------|
d|-3-22-3-222-3-222-3-222-3-222-3-222-3-222-3-222--|
A|-3-22-3-222-3-222-3-222-3-222-3-222-3-222-3-222--|
E|-1-00-1-000-1-000-1-000-1-000-1-000-1-000-1-000--|

e|-------------------------------------------------|
B|-------------------------------------------------|
G|-------------------------------------------------|
D|-3-222-3-222--------3-222-3-222-3-222-3-222------|
A|-3-222-3-222--------3-222-3-222-3-222-3-222------|
E|-1-000-1-000--------1-000-1-000-1-000-1-000------|

e|-------------------------------------------------|
B|-------------------------------------------------|
G|-------------------------------------------------|
D|-3-222-3-222-3-222-3-222-------------------------|
A|-3-222-3-222-3-222-3-222-------------------------|
E|-1-000-1-000-1-000-1-000-------------------------|

e|-------------------------------------------------|
B|-------------------------------------------------|
G|-------------------------------------------------|
D|-2-2-3--2-2-3--2-2-3--2-2-3--2-2-3--2-2-3--------|
A|-2-2-3--2-2-3--2-2-3--2-2-3--2-2-3--2-2-3--------|
E|-0-0-1--0-0-1--0-0-1--0-0-1--0-0-1--0-0-1--------|

e|-------------------------------------------------|
B|-------------------------------------------------|
G|-------------------3-3---3-3---3-3---3-3---------|
D|-2-2-3--2-2-3------x-x---x-x---x-x---x-x---------|
A|-2-2-3--2-2-3------1-1---1-1---1-1---1-1---------|
E|-0-0-1--0-0-1------------------------------------|

e|------------------------------------|
B|------------------------------------|
G|------------------------------------|
D|-2-2-3--2-2-3--2-2-3----------------|
A|-2-2-3--2-2-3--2-2-3----------------|
E|-0-0-1--0-0-1--0-0-1----------------|

  thats it, just listen the song to pick it up. 
  hope you enjoy it for all you blindside fans!
Добавлено: 26.06.2012
Другие материалы по этой песне:

Страница создана 20.04.2012
http://primanota.ru/blindside/superman-chords.htm
Привет, Гость.
Предлагаем пройти революционный курс по гитаре.
Подарок от PrimaNota.Ru, забирай!