PrimaNota.ru - самый крупный в мире бесплатный архив песенных текстов, аккордов, табулатур и нот


Blindside - Put Back The Stars - текст песни, таба, видео

Регистрация Запомнить меня
Войти через:  Facebook Google Twitter Vk Yandex Mail.ru

Blindside - Put Back The Stars - текст песни, таба, видео

Печатать
Просмотров: 207
Уроки эстрадного вокала в Санкт-Петербурге
Blindside
The Great Depression
Put Back The Stars
© 2005 DRT Recordings
Tabbed By: Jeremy Waterman
Tuning: Standard - EADGBE

This is a really easy song to play. Very easy. A beginner could definately play it. But,
thought I'd tab it out anyways, seeing how I'm cool like that. As far as I know, the
is the same four power chords all the way through, but played differently (and a little
in the Chorus). There's a different picking in the background, but I'm not
enough to make out what it is. And, there's another solo-ish type picking in the
which I DID figure out. If you have any comments, corrections or such of the such + like +
you can send them to me at infectedwithyou@hotmail.com
Also, if you do know that picking in the verses, and would like it added to
my tab, feel free to send it to me, and I'll gladly credit you to the max for that part.
Love and Kisses;
Jeremy

Legend:
 Nothing really, other than
 b Bend

Intro:
E[-----------------------------------------------------------------]
B[-----------------------------------------------------------------]
G[---------------------------------4-4-4-4-4-4-4-4-5-5-5-5-5-5-5-5-]
D[-5-5-5-5-5-5-5-5-2-2-2-2-2-2-2-2-4-4-4-4-4-4-4-4-5-5-5-5-5-5-5-5-]
A[-5-5-5-5-5-5-5-5-2-2-2-2-2-2-2-2-2-2-2-2-2-2-2-2-3-3-3-3-3-3-3-3-]
E[-3-3-3-3-3-3-3-3-0-0-0-0-0-0-0-0---------------------------------]

E[-------------]
B[-------------]
G[-------------]
D[-5----5----5-]
A[-5----5----5-]
E[-3----3----3-]

Verse:
E[-------------------------------------------------]
B[-------------------------------------------------]
G[-----------------4-4-4-4-4-4-4-4-5-5-5-5-5-5-5-5-]
D[-2-2-2-2-2-2-2-2-4-4-4-4-4-4-4-4-5-5-5-5-5-5-5-5-]
A[-2-2-2-2-2-2-2-2-2-2-2-2-2-2-2-2-3-3-3-3-3-3-3-3-]
E[-0-0-0-0-0-0-0-0---------------------------------]

E[-----------------------------------------------------------------]
B[-----------------------------------------------------------------]
G[---------------------------------4-4-4-4-4-4-4-4-5-5-5-5-5-5-5-5-]
D[-5-5-5-5-5-5-5-5-2-2-2-2-2-2-2-2-4-4-4-4-4-4-4-4-5-5-5-5-5-5-5-5-]
A[-5-5-5-5-5-5-5-5-2-2-2-2-2-2-2-2-2-2-2-2-2-2-2-2-3-3-3-3-3-3-3-3-]
E[-3-3-3-3-3-3-3-3-0-0-0-0-0-0-0-0---------------------------------]
   (Repeat second part of verse x3)

Chorus:
E[--------------------------------------------------------------------]
B[--------------------------------------------------------------------]
G[-------------------------2----------4-4-4-4-4-4-4-4-4-4-4-4-4-4-4-4-]
D[-5-----4-----2-----4-----2----------4-4-4-4-4-4-4-4-4-4-4-4-4-4-4-4-]
A[-5-----4-----2-----4-----0----------2-2-2-2-2-2-2-2-2-2-2-2-2-2-2-2-]
E[-3-----2-----0-----2------------------------------------------------]

Post Chorus:
E[-------------------------------------]
B[--7-8-7-7-7-8b-8-7-8-8-8-8-8-8-8-8-8-]
G[-------------------------------------]
D[-------------------------------------]
A[-------------------------------------]
E[-------------------------------------]

Verse:
E[-----------------------------------------------------------------]
B[-----------------------------------------------------------------]
G[---------------------------------4-4-4-4-4-4-4-4-5-5-5-5-5-5-5-5-]
D[-5-5-5-5-5-5-5-5-2-2-2-2-2-2-2-2-4-4-4-4-4-4-4-4-5-5-5-5-5-5-5-5-]
A[-5-5-5-5-5-5-5-5-2-2-2-2-2-2-2-2-2-2-2-2-2-2-2-2-3-3-3-3-3-3-3-3-]
E[-3-3-3-3-3-3-3-3-0-0-0-0-0-0-0-0---------------------------------]
                                                                (x4)
Chorus:
E[--------------------------------------------------------------------]
B[--------------------------------------------------------------------]
G[-------------------------2----------4-4-4-4-4-4-4-4-4-4-4-4-4-4-4-4-]
D[-5-----4-----2-----4-----2----------4-4-4-4-4-4-4-4-4-4-4-4-4-4-4-4-]
A[-5-----4-----2-----4-----0----------2-2-2-2-2-2-2-2-2-2-2-2-2-2-2-2-]
E[-3-----2-----0-----2------------------------------------------------]

Bridge:
E[---------------------------------]
B[---------------------------------]
G[-4-4-4-4-4-4-4-4-5-5-5-5-5-5-5-5-]
D[-4-4-4-4-4-4-4-4-5-5-5-5-5-5-5-5-]
A[-2-2-2-2-2-2-2-2-3-3-3-3-3-3-3-3-] (x4)
E[---------------------------------]

E[---------------------------------]
B[---------------------------------]
G[-5-5-5-5-5-5-5-5-5-5-5-5-5-5-5-5-]
D[-5-5-5-5-5-5-5-5-5-5-5-5-5-5-5-5-]
A[-3-3-3-3-3-3-3-3-3-3-3-3-3-3-3-3-]
E[---------------------------------]

Chorus:
E[--------------------------------------]
B[--------------------------------------]
G[-------------------------2----------4-]
D[-5-----4-----2-----4-----2----------4-]
A[-5-----4-----2-----4-----0----------2-]
E[-3-----2-----0-----2------------------]

             E[-----]
             B[-----]
End On This: G[-----]
             D[--5--] (Let Ring)
             A[--5--]
             E[--3--]
Добавлено: 23.06.2012
Другие материалы по этой песне:
  • Аккорды и текст

Страница создана 17.03.2012
http://primanota.ru/blindside/put-back-the-stars-chords.htm
Привет, Гость.
Предлагаем пройти революционный курс по гитаре.
Подарок от PrimaNota.Ru, забирай!