PrimaNota.ru - самый крупный в мире бесплатный архив песенных текстов, аккордов, табулатур и нот


Blindside - Fell In Love With The Game - текст песни, таба, бас-таба, видео

Регистрация Запомнить меня
Войти через:  Facebook Google Twitter Vk Yandex Mail.ru

Blindside - Fell In Love With The Game - текст песни, таба, бас-таба, видео

Печатать
Просмотров: 190
Intro (2x)

e|--------------------------------------|
B|--------------------------------------|
G|--------------8-8-8-8-9-9-9-9-9-9-9-9-|
D|-10-10-10—9-9-x-x-x-x-x-x-x-x-x-x-x-x-|
A|-10-10-10—9-9-6-6-6-6-7-7-7-7-7-7-7-7-|
D|-10-10-10—9-9-------------------------|

Verse 1 (3x)
e|----------------------------------------------|
B|----------------------------------------------|
G|-12------11-----------------8-8-8-8-9-9-9-9-9-|
D|-x--(4x)-x-(4x)10-10-10-9-9-x-x-x-x-x-x-x-x-x-|
A|-10------9-----10-10-10-9-9-6-6-6-6-7-7-7-7-7-|
D|---------------10-10-10-9-9-------------------|


E|------------------------------------|
B|------------------------------------|
G|-12------11-----12-----12-----------|
D|-x--(4x)-x-(4x)-x-(4x)-x-(4x)-------|
A|-10------9------10-----9------------|
D|------------------------------------|

Chours 1(2x)

e|---------------------------------------------------------------------|
B|--------------------12-------------------------12-x-x-12-x-x-12-x-12-|
G|-------------9------x-(8x)---------------7-----x--x-x-x—-x-x-x--x-x--|
D|-5-------9-9-x-(8x)-9------5------9------x-(4x)9--x-x-9--x-x-9--x-9--|
A|-5-(14x)-9-9-7-------------5-(8x)-9-(4x)-9---------------------------|
D|-5-------9-9---------------5------9----------------------------------|

Verse 2 (3x)
e|-----------------------------------------------|
B|-----------------------------------------------|
G|-12------11------------------8-8-8-8-9-9-9-9-9-|
D|--x-(4x)-x-(4x)-10-10-10-9-9-x-x-x-x-x-x-x-x-x-|
A|-10------9------10-10-10-9-9-6-6-6-6-7-7-7-7-7-|
D|----------------10-10-10-9-9-------------------|

E|-----------------------------|
B|-----------------------------|
G|-12-----11-----12-----12-----|
D|-x-(4x)-x-(4x)-x-(4x)-x-(4x)-|
A|-10-----9------10-----9------|
D|-----------------------------|

Chorus 2(2x)

e|---------------------------------------------------------------------------|
B|--------------------12--------------------------12-x-x-12-x-12-x-x-12-x-12-|
G|-------------9------x-(8x)---------------7------x--x-x-x--x-x--x-x-x--x-x--|
D|-5-------9-9-x-(8x)-9------5------9------x-(4x)-9--x-x-9--x-9--x-x-9--x-9--|
A|-5-(14x)-9-9-7-------------5-(8x)-9-(4x)-9---------------------------------|
D|-5-------9-9---------------5------9----------------------------------------|

Bridge (2x)

e|----------------------------------------------------------------------|
B|-------------------------------------------12-x-x-12-x-12-x-x-12-x-12-|
G|-9------8------5------4------9------8------x--x-x-x--x—x--x-x-x--x—x--|
D|-x-(8x)-x-(8x)-x-(8x)-x-(8x)-x-(8x)-x-(8x)-9--x-x-9--x-9--x-x-9--x-9--|
A|-7------6------3------2------7------6---------------------------------|
D|----------------------------------------------------------------------|

Verse 3
e|----------------------------------------|
B|----------------------------------------|
G|-12~---11~--------------8-8-8-9-9-9-9-9-|
D|- x----x---10-10-10-9-9-x-x-x-x-x-x-x-x-|  (2x)
A|-10~---9~--10-10-10-9-9-6-6-6-7-7-7-7-7-|
D|-----------10-10-10-9-9-----------------|

E|-----
B|-----
G|12~--
D|x----
A|10~--
D|-----

Chours 3(2x)

e|---------------------------------------------------------------------------|
B|--------------------12--------------------------12-x-x-12-x-12-x-x-12-x-12-|
G|-------------9------x-(8x)---------------7------x--x-x-x--x-x--x-x-x--x-x--|
D|-5-------9-9-x-(8x)-9------5------9------x-(4x)-9--x-x-9--x-9--x-x-9--x-9--|
A|-5-(14x)-9-9-7-------------5-(8x)-9-(4x)-9---------------------------------|
D|-5-------9-9---------------5------9----------------------------------------|

Outro (4x)
e|------------------------------------|
B|------------------------------------|
G|--------------8-8-8-9-9-9-9-9-9-9-9-|
D|-10-10-10-9-9-x-x-x-x-x-x-x-x-x-x-x-|
A|-10-10-10-9-9-6-6-6-7-7-7-7-7-7-7-7-|
D|-10-10-10-9-9-----------------------|
Добавлено: 02.07.2012
Другие материалы по этой песне:

Страница создана 13.03.2012
http://primanota.ru/blindside/fell-in-love-with-the-game-chords.htm
Привет, Гость.
Предлагаем пройти революционный курс по гитаре.
Подарок от PrimaNota.Ru, забирай!