PrimaNota.ru - самый крупный в мире бесплатный архив песенных текстов, аккордов, табулатур и нот


Blindside - Eye Of The Storm - текст песни, таба, бас-таба, видео

Регистрация Запомнить меня
Войти через:  Facebook Google Twitter Vk Yandex Mail.ru

Blindside - Eye Of The Storm - текст песни, таба, бас-таба, видео

Печатать
Просмотров: 245
Easy and fun song to play.  Standard Drop D tuning.  This whole tab is just the parts...
i didnt add the strumming or anything...just the notes, youll have to listen to the song
to see where to put all the parts and whatnot.

INTRO/VERSE THINGY-MA-Goober
"i think ive stayed, for the last time.."
e-----------------------------|
B-----------------------------|
G-----------------------------|
D--9-9-9-9-9-9-9-9/11\9-7-----|
A--7-7-7-7-7-7-7----------9-7-|
D-----------------------------|

MAIN THINGY pt.1
"good-BYYYYYEEEEEEE!!!!!!!!"
e---------------------------------------------------------|
B---------------------------------------------------------|
G---------------------------------------------------------|
D--11-11-11-11-11-7-7-7-7-4-4-4-4-9-9-9-9-6-6-6-6-2-2-2-2-|
A--11-11-11-11-11-7-7-7-7-4-4-4-4-9-9-9-9-6-6-6-6-2-2-2-2-|
D--11-11-11-11-11-7-7-7-7-4-4-4-4-9-9-9-9-6-6-6-6-2-2-2-2-|

e---------------------|
B---------------------|
G---------------------|
D-7-7-7-7-11-11-11-11-|
A-7-7-7-7-11-11-11-11-|
D-7-7-7-7-11-11-11-11-|

SOFT PART
e--------------|
B--------------|
G--------------|
D-----8--------|
A--6-----6-----|
D--------------|

OTHER MAIN RIFF...gah idk
"PLEASE COME.."             "CLO-..............SERRR"
e-------------------------------------------------------------|
B-------------------------------------------------------------|
G-------------------------------------------------------------|
D--9-9-9-9-9-9-9-8-8-8-8-8-8-------------------1--------------|
A--9-9-9-9-9-9-9-8-8-8-8-8-8-------------------1--------------|
D--9-9-9-9-9-9-9-8-8-8-8-8-8/*way up the neck*\1----1~1~1~1~1-|
                          "any-more==================================="
e-----------------------------------------------------------------------|
B-----------------------------------------------------------------------|
G----------------------------------------------13-13-13-13--15-15-15-15-|
D--9-9-9-9-9-9-9-8-8-8-8-8-8--4-4-4-4-6-6-6-6--xx-xx-xx-xx--xx-xx-xx-xx-|
A--9-9-9-9-9-9-9-8-8-8-8-8-8--4-4-4-4-6-6-6-6--11-11-11-11--13-13-13-13-|
D--9-9-9-9-9-9-8-8-8-8-8-8-8--4-4-4-4-6-6-6-6---------------------------|
  "PLEASE SEE!"
e-------------------------------------------------------------|
B-------------------------------------------------------------|
G-------------------------------------------------------------|
D--9-9-9-9-9-9-9-8-8-8-8-8-8-------------------1--------------|
A--9-9-9-9-9-9-9-8-8-8-8-8-8-------------------1--------------|
D--9-9-9-9-9-9-8-8-8-8-8-8-8/*way up the neck*\1----1~1~1~1~1-|

e------------------------------------------------------------|
B------------------------------------------------------------|
G------------------------------------------------------------|
D--9-9-9-9-9-9-9-8-8-8-8-8-8-6-------------------------------|
A--9-9-9-9-9-9-9-8-8-8-8-8-8-6-------------------------------|
D--9-9-9-9-9-9-8-8-8-8-8-8-8-6-------------------------------|

SOFT BRIDGE PART *adding octives sounds good too*
"love is in the air...tonight"
e------------------------------------------------------|
B------------------------------------------------------|
G------------------------------------------------------|
D-----8--------6--8----9----------6--8--8--------8-----|
A--6----6---9------------9-10--9-------------6------6--|
D------------------------------------------------------|

END STRONG ON

D--6(let ring)---|
A--6(let ring)---|
D--6(let ring)---|
Добавлено: 06.05.2012
Другие материалы по этой песне:

Страница создана 14.04.2012
http://primanota.ru/blindside/eye-of-the-storm-chords.htm
Привет, Гость.
Предлагаем пройти революционный курс по гитаре.
Подарок от PrimaNota.Ru, забирай!