PrimaNota.ru - самый крупный в мире бесплатный архив песенных текстов, аккордов, табулатур и нот


Blindside - Ask Me Now - текст песни, таба, видео

Регистрация Запомнить меня
Войти через:  Facebook Google Twitter Vk Yandex Mail.ru

Blindside - Ask Me Now - текст песни, таба, видео

Печатать
Просмотров: 165
Album: The Great Depression
Tabbed By: Brian Benzinger
Tuning: Drop D (D,A,D,G,B,E)

This is my third tab. I just got their CD today
and this is already the 2nd song I've tabbed off it
from only having it less than 3 hours.

/=slide
~=hold out note
^=bend string to right pitch

Pick Scrapes (4x)
-|-----------|
-|-----------|
-|-----------|
-|-5-5-5-5-4-|
-|-5-5-5-5-4-|
-|-5-5-5-5-4-|

Intro/Verse 1 (6x)
-|----------------------|
-|----------------------|
-|----------------------|
-|----------------------|
-|-8-8-8-8\5/7-7-7-7\5/-|
-|----------------------|

Chorus
-|-----------------------------|
-|-----------------------------|
-|-----------------------------|
-|-----------------------------|
-|-----------------------------|
-|-12-12-12-12\7/10-10-10-10\7-|

Chorus Cont. (Double fast Picking-This isn't exact # of notes)
-|-------------------------------------------------------|
-|-------------------------------------------------------|
-|-------------------------------------------------------|
-|-------------------------------------------------------|
-|-5-5-5-5-5-5-5-5\3-3-3-3-3-3-3-3/7-7-7-7-7-7-7-7-7-7-7-|
-|-------------------------------------------------------|

Chorus Cont. (Still Double Fast Picking)
-|-------------------------------------------------------|
-|-------------------------------------------------------|
-|-------------------------------------------------------|
-|---------------------------------------------3-3-3-3-3-|
-|-5-5-5-5-5-5-5-5\3-3-3-3-3-3-3-3/5-5-5-5-5-5-3-3-3-3-3-|
-|---------------------------------------------3-3-3-3-3-|

Chorus Cont. (Still Double Fast Picking)
-|-------------------------------------------------------|
-|-------------------------------------------------------|
-|-------------------------------------------------------|
-|-------------------------------------------------------|
-|-5-5-5-5-5-5-5-5\3-3-3-3-3-3-3-3/5-5-5-5-4-4-4-4-5-5-5-|
-|-------------------------------------------------------|

After the ending of chorus hold this note
-|---|
-|---|
-|---|
-|---|
-|-0-|
-|---|

Verse 2(6x)
-|----------------------|
-|----------------------|
-|----------------------|
-|----------------------|
-|-8-8-8-8\5/7-7-7-7\5/-|
-|----------------------|

Chorus 
-|-----------------------------|
-|-----------------------------|
-|-----------------------------|
-|-----------------------------|
-|-----------------------------|
-|-12-12-12-12\7/10-10-10-10\7-|

Chorus Cont. (Double Fast Picking)
-|-------------------------------------------------------|
-|-------------------------------------------------------|
-|-------------------------------------------------------|
-|-------------------------------------------------------|
-|-5-5-5-5-5-5-5-5\3-3-3-3-3-3-3-3/7-7-7-7-7-7-7-7-7-7-7-|
-|-------------------------------------------------------|

Chorus Cont. (Still Double Fast Picking)
-|-------------------------------------------------------|
-|-------------------------------------------------------|
-|-------------------------------------------------------|
-|---------------------------------------------3-3-3-3-3-|
-|-5-5-5-5-5-5-5-5\3-3-3-3-3-3-3-3/5-5-5-5-5-5-3-3-3-3-3-|
-|---------------------------------------------3-3-3-3-3-|

Chorus Cont. (Still Double Fast Picking)
-|-------------------------------------------------------|
-|-------------------------------------------------------|
-|-------------------------------------------------------|
-|-------------------------------------------------------|
-|-5-5-5-5-5-5-5-5\3-3-3-3-3-3-3-3/5-5-5-5-4-4-4-4-5-5-5-|
-|-------------------------------------------------------|

After the ending of this chorus hold this note, then he picks again.
-|----------------------|
-|----------------------|
-|----------------------|
-|----------------------|
-|----------------------|
-|-7~----------------7~-|

Then... (4x)
-|----------------------|
-|----------------------|
-|----------------------|
-|----------------------|
-|-8-8-8-8\5/7-7-7-7\5/-|
-|----------------------|

Chorus- this ones just missing the beginning
-|-------------------------------------------------------|
-|-------------------------------------------------------|
-|-------------------------------------------------------|
-|-------------------------------------------------------|
-|-5-5-5-5-5-5-5-5\3-3-3-3-3-3-3-3/7-7-7-7-7-7-7-7-7-7-7-|
-|-------------------------------------------------------|

Chorus Cont. 
-|-------------------------------------------------------|
-|-------------------------------------------------------|
-|-------------------------------------------------------|
-|---------------------------------------------3-3-3-3-3-|
-|-5-5-5-5-5-5-5-5\3-3-3-3-3-3-3-3/5-5-5-5-5-5-3-3-3-3-3-|
-|---------------------------------------------3-3-3-3-3-|

Chorus Cont. 
-|-------------------------------------------------------|
-|-------------------------------------------------------|
-|-------------------------------------------------------|
-|-------------------------------------------------------|
-|-5-5-5-5-5-5-5-5\3-3-3-3-3-3-3-3/5-5-5-5-4-4-4-4-5-5-5-|
-|-------------------------------------------------------|

Chorus
-|-------------------------------------------------------|
-|-------------------------------------------------------|
-|-------------------------------------------------------|
-|-------------------------------------------------------|
-|-5-5-5-5-5-5-5-5\3-3-3-3-3-3-3-3/7-7-7-7-7-7-7-7-7-7-7-|
-|-------------------------------------------------------|

Chorus Cont. 
-|-------------------------------------------------------|
-|-------------------------------------------------------|
-|-------------------------------------------------------|
-|---------------------------------------------3-3-3-3-3-|
-|-5-5-5-5-5-5-5-5\3-3-3-3-3-3-3-3/5-5-5-5-5-5-3-3-3-3-3-|
-|---------------------------------------------3-3-3-3-3-|

Chorus Cont. 
-|-------------------------------------------------------|
-|-------------------------------------------------------|
-|-------------------------------------------------------|
-|-------------------------------------------------------|
-|-5-5-5-5-5-5-5-5\3-3-3-3-3-3-3-3/5-5-5-5-4-4-4-4-5-5-5-|
-|-------------------------------------------------------|

Outro
-|-----------------------------------------|
-|-----------------------------------------|
-|-----------------------------------------|
-|-----------------------------------------|
-|-7-5-7-7^-5------------------------------|
-|-----------------------------------------|

That's it. Just got straight down the page and that's
the entire song. Enjoy.

Добавлено: 20.06.2012
Другие материалы по этой песне:
  • Аккорды и текст

Страница создана 23.03.2012
http://primanota.ru/blindside/ask-me-now-chords.htm
Привет, Гость.
Предлагаем пройти революционный курс по гитаре.
Подарок от PrimaNota.Ru, забирай!