PrimaNota.ru - самый крупный в мире бесплатный архив песенных текстов, аккордов, табулатур и нот


Blindside - Act - текст песни, таба, видео

Регистрация Запомнить меня
Войти через:  Facebook Google Twitter Vk Yandex Mail.ru

Blindside - Act - текст песни, таба, видео

Печатать
Просмотров: 165
----------------------------------------------------------------------------
                            ACT - Blinside
----------------------------------------------------------------------------
tabbed by: sam vieritz
email: charger211@hotmail.com 

tuning: standard  

Intro
e|--------------------------------------------------------|
B|-------------------------5-------------------------5----|
G|--------------------------------------------------------|
D|-2-2---4-4---5-5---xxx-------2---4-4---5-5---xxx--------|
A|-2-2---4-4---5-5---xxx-------2---4-4---5-5---xxx--------|
E|-0-0---2-2---3-3---xxx-------0---2-2---3-3---xxx--------|

e|----------------------------------------------------------------------|
B|-----------------------5-6-5------------------------------------------|
G|----------------------------------------------------------------------|
D|-2---4-4---5-5---xxx-----------2---4-4---5-5---4-4---2-----xxx----2---|
A|-2---4-4---5-5---xxx-----------2---4-4---5-5---4-4---2-----xxx----2---|
E|-0---2-2---3-3---xxx-----------0---2-2---3-3---2-2---0-----xxx----0---|

Verse
e|------------------------------------|
B|------------------------------------|
G|------------------------------------|
D|-2---4-4-4-4-4-4---5-5----555---7---|  x12
A|-2---4-4-4-4-4-4---5-5----555---7---|
E|-0---2-2-2-2-2-2---3-3----333---5---|

Pre-chorus
e|---------------------------------------------------|
B|---------------------------------------------------|
G|---------------------------------------------------|
D|-3-3-3---343---3-3-3---343---3-3-3---343---3-3-3---|  x2
A|-3-3-3---343---3-3-3---343---3-3-3---343---3-3-3---|
E|-1-1-1---121---1-1-1---121---1-1-1---121---1-1-1---|

Chorus
e|-------------------------------------------------------------|
B|-------------------------------------------------------------|
G|---------------------------3-33------------------------------|
D|-5-55---44---2--2-22--22---3-33---55---2---5-4-2---4-4-4-4---|
A|-5-55---44---2--2-22--22---1-11---55---2---5-4-2---4-4-4-4---|
E|-3-33---22---0--0-00--00----------33---0---3-2-0---2-2-2-2---|

e|-----------------------------------------------------------|
B|-----------------------------------------------------------|
G|---------------------------3-33----------------------------|
D|-5-55---44---2--2-22--22---3-33---55---2---5-4-2---4-4-4---|
A|-5-55---44---2--2-22--22---1-11---55---2---5-4-2---4-4-4---|
E|-3-33---22---0--0-00--00----------33---0---3-2-0---2-2-2---|

e|-----------------------------------------------------------|
B|-----------------------------------------------------------|
G|---------------------------3-33----------------------------|
D|-5-55---44---2--2-22--22---3-33---55---2---5-4-2---4-4-4---|
A|-5-55---44---2--2-22--22---1-11---55---2---5-4-2---4-4-4---|
E|-3-33---22---0--0-00--00----------33---0---3-2-0---2-2-2---|

e|--------------------------------------------------------------|
B|--------------------------------------------------------------|
G|---------------------------3-33-------------------------------|
D|-5-55---44---2--2-22--22---3-33---55---2---5-4-2---xxxxxxxx---|
A|-5-55---44---2--2-22--22---1-11---55---2---5-4-2---xxxxxxxx---|
E|-3-33---22---0--0-00--00----------33---0---3-2-0---xxxxxxxx---|

e|-------------------------------------------------------------|
B|-------------------------------------------------------------|
G|---------------------------3-33------------------------------|
D|-5-55---44---2--2-22--22---3-33---55---2---5-4-2---4-4-4-4---|
A|-5-55---44---2--2-22--22---1-11---55---2---5-4-2---4-4-4-4---|
E|-3-33---22---0--0-00--00----------33---0---3-2-0---2-2-2-2---|

e|-------------------------------------------------------------|
B|-------------------------------------------------------------|
G|---------------------------3-33------------------------------|
D|-5-55---44---2--2-22--22---3-33---55---2---5-4-2---44444444--|
A|-5-55---44---2--2-22--22---1-11---55---2---5-4-2---44444444--|
E|-3-33---22---0--0-00--00----------33---0---3-2-0---22222222--|

then
Play verse  x9
Play Pre-chorus  x2
play chorus


Bridge
e|---------------------------------|
B|---------------------------------|
G|---------------------------------|
D|-5-4-5---5-4-5---5-4-5---5-4-5---|  x2
A|---------------------------------|
E|---------------------------------|

strum this constantly 8 times
e|-----------------------------|
B|-----------------------------|
G|-----------------------------|
D|-5-5-5-5---4-4---5-5-5-5-5---|  x8
A|-5-5-5-5---4-4---5-5-5-5-5---|
E|-3-3-3-3---2-2---3-3-3-3-3---|

Outro
e|-------------------------------------------------------------|
B|-------------------------------------------------------------|
G|---------------------------3-33------------------------------|
D|-5-55---44---2--2-22--22---3-33---55---2---5-4-2---4-4-4-4---|
A|-5-55---44---2--2-22--22---1-11---55---2---5-4-2---4-4-4-4---|
E|-3-33---22---0--0-00--00----------33---0---3-2-0---2-2-2-2---|

e|--------------------------------------------------------------|
B|--------------------------------------------------------------|
G|---------------------------3-33-------------------------------|
D|-5-55---44---2--2-22--22---3-33---55---2---5-4-2---xxxxxxxx---|
A|-5-55---44---2--2-22--22---1-11---55---2---5-4-2---xxxxxxxx---|
E|-3-33---22---0--0-00--00----------33---0---3-2-0---xxxxxxxx---|

e|--------------------------------------------------------------|
B|--------------------------------------------------------------|
G|---------------------------3-33-------------------------------|
D|-5-55---44---2--2-22--22---3-33---55---2---5-4-2---44444444---|
A|-5-55---44---2--2-22--22---1-11---55---2---5-4-2---44444444---|
E|-3-33---22---0--0-00--00----------33---0---3-2-0---22222222---|

e|-----------------------------------------------------------|
B|-----------------------------------------------------------|
G|---------------------------3-33----------------------------|
D|-5-55---44---2--2-22--22---3-33---55---2---5-4-2---4-4-4---|
A|-5-55---44---2--2-22--22---1-11---55---2---5-4-2---4-4-4---|
E|-3-33---22---0--0-00--00----------33---0---3-2-0---2-2-2---|


that's it. listen to the song to pick it up.
Добавлено: 28.03.2012
Другие материалы по этой песне:
  • Аккорды и текст

Страница создана 27.02.2012
http://primanota.ru/blindside/act-chords.htm
Привет, Гость.
Предлагаем пройти революционный курс по гитаре.
Подарок от PrimaNota.Ru, забирай!