PrimaNota.ru - самый крупный в мире бесплатный архив песенных текстов, аккордов, табулатур и нот


Blind Witness - Confessions - таба, видео

Регистрация Запомнить меня
Войти через:  Facebook Google Twitter Vk Yandex Mail.ru

Blind Witness - Confessions - таба, видео

Печатать
Просмотров: 150
-------------------------------------------------------------------------------
                             CONFESSIONS - Blind Witness
-------------------------------------------------------------------------------
Tabbed by:xAttilax
Email:xAttilax@live.ca

Tuning: Drop C, this is what i got by ear figure out strumming patterns their pretty easy

Intro - Figure out the Strumming Pattern

D|---------------------------------------------------------------------------|
A|---------------------------------------------------------------------------|
F|---------------------------------------------------------------------------|
C|-0--0---0-------7--5-------------------------------------------------------|
G|-0--0---0-------5--3-------------------------------------------------------|
C|-0--0---0-------5--3-------------------------------------------------------|

Verse - Repeats through out the song

D|---------------------------------------------------------------------------|
A|---------------------------------------------------------------------------|
F|---------------------------------------------------------------------------|
C|-0-000--10-8-7--7--0-00-0-0-----10-----10--0-000-10-8-7--7--0-0-5/10-7-----|
G|-0-000---------8-8-0-00-0-0-7-8----7-8-----0-000--------8-8-0-0-5/8--5-----|
C|-0-000-------------0-00-0-0----------------0-000------------0-0-5/8--5-----|

Pre Chorus- Figure out strumming patter

D|---------------------------------------------------------------------------|
A|---------------------------------------------------------------------------|
F|---------------------------------------------------------------------------|
C|-8--7-7h8--5-7h8p7p5p0-0--------3------------------------------------------|
G|-8---------5-----------0-7-7h8--3--7h8-7h8---------------------------------|
C|-8---------5-----------0--------3------------------------------------------|

Chorus - Figure out strumming pattern

D|---------------------------------------------------------------------------|
A|---------------------------------------------------------------------------|
F|---------------------------------------------------------------------------|
C|--8-0------8-0------8-0-------------10--7----------------------------------|
G|--8-0-7-7h8-8-0-7-7h8-8-0-17-17h19--8---5----------------------------------|
C|--8-0------8-0------8-0-------------8---5----------------------------------|

Break Down

D|---------------------------------------------------------------------------|
A|---------------------------------------------------------------------------|
F|---------------------------------------------------------------------------|
C|-0-0-0----7----5-----------------------------------------------------------|
G|-0-0-0----5----3-----------------------------------------------------------|
C|-0-0-0----5----3-----------------------------------------------------------|

Bridge- Again Figure Out Strumming Pattern

D|--------------------------------|
A|--------------------------------|
F|--------------------------------|
C|--8-0-3-5----8-0-3-5-8-0-3p0-5--|
G|--8-0-3-5----8-0-3-5-8-0-3p0-5--|
C|--8-0-3-5----8-0-3-5-8-0-3p0-5--|

The Rest of the song pretty much just repeats everything else, mind you i did there this 
ear so theres bound to be a few mistakes, Corrections are welcome, Please Rate and 
  http://www.myspace.com/blindwitness  check out the band

Peace love and good luck my friends
Добавлено: 18.04.2012
Вам также может быть интересно:
Другие материалы по этой песне:
  • Аккорды и текст

Страница создана 18.04.2012
http://primanota.ru/blind-witness/confessions-chords.htm
Привет, Гость.
Предлагаем пройти революционный курс по гитаре.
Подарок от PrimaNota.Ru, забирай!