PrimaNota.ru - самый крупный в мире бесплатный архив песенных текстов, аккордов, табулатур и нот


Blind Melon - Toes Across The Floor - аккорды и текст, бас-таба, видео

Регистрация Запомнить меня
Войти через:  Facebook Google Twitter Vk Yandex Mail.ru

Blind Melon - Toes Across The Floor - аккорды и текст, бас-таба, видео

Печатать
Просмотров: 175
Уроки эстрадного вокала в Санкт-Петербурге
Авторы: Shannon Hoon, Christopher Thorn, Rogers Stevens, Glen Graham, Brad Smith

Toes Across The Floor
Blind Melon
a PApEr SCrAtCBiNGs tab (  OR
				 )
----------------------------------------------------------------------------

Toes Across The Floor - Blind Melon
from the album Soup
as transcribed by Andrew
Awilliamson49@hotmail.com


Fig.1                             
G------------------------------------------        
D-----------3--------------------3---------        
A----5--------------------5----------------        
E--------------5---------------------5-----       

Fig.2
G----------------------------------
D----------------------------------
A---1-----------1/3----------3/----
E----------------------------------


Fig.3                          
G----------------------     
D----------------------      
A----------------------    
E-3-3-3-3-3-3-1-1-1----     

Fig.4
G------------------5---------10-9---------------
D-----------5^7-----7/12---------12-10-8-7-5----
A----5--5---------------------------------------
E-----------------------------------------------


Fig.5                            
G----------------5-------------------------      
D----------5^7----7-----------------------     
A--5--5---------------5--------3----3/----
E--------------------------3^5----5--------    

Fig.6                                               
G------------------------------------------------------------------   
D-------------------------3^5-5-3-2--------------------------------   
A--/5-5----3^5----5-5------------------5-5---3^5-5-5---------------  
E--------3-------------------------------------3--------------3-1/-   


Fig.7
G-------------
D-------------
A-/6----------
E-------------


Fig.8                           
G--------------5--------7-7-7-7-5-------     
D--------5^7----7---0--------------7-5--      
A---5-5---------------------------------      
E---------------------------------------       


Fig.9
G-------------------------------- 
D--------------------------------
A---5-5-------3-----5-5-5-5-3----
E--------3^5-----5---------------


Fig.10                                      
G--------------------------------------------------        
D--------------------------------------------------        
A--5-5^5/83--0-5-55^3^5-5-5-5-3-------------------        
E----------------------------------------------5-3-       


Fig.11
G----------------------
D----------------------
A--5-5/8-5-5-5-8-8/10--
E----------------------


Fig.12                                   
G--------------------------------                
D--------------------------------                  
A--5-5------3----5-5----3--------     x 4               
E-------3^5---5-------3^5--------               


Fig.13
G---------------------------------------------
D---------------------------------------------
A--55-5-----55--5-----55--5-^-5----let ring
E---------------------------------------------

------------------------------------------------------------------------

This tab is MINE!! Don't steal it without asking me, okay? 
Добавлено: 23.11.2013
Другие материалы по этой песне:

Страница создана 10.03.2012
http://primanota.ru/blind-melon/toes-across-the-floor-chords.htm
Привет, Гость.
Предлагаем пройти революционный курс по гитаре.
Подарок от PrimaNota.Ru, забирай!