PrimaNota.ru - самый крупный в мире бесплатный архив песенных текстов, аккордов, табулатур и нот


Blind Melon - Last Laugh - текст песни, таба, видео

Регистрация Запомнить меня
Войти через:  Facebook Google Twitter Vk Yandex Mail.ru

Blind Melon - Last Laugh - текст песни, таба, видео

Печатать
Просмотров: 131
Blind Melon - Last Laugh

Chords


    G       G(?)    C       D       ?      Em     F

E---3-------2-------0-------2-------1------0------1-----|
B---3-------3-------1-------3-------3------0------1-----|
G---0-------0-------0-------2-------2------0------2-----|
D---0-------0-------2-------0-------0------2------3-----|
A---2-------0-------3-------0-------x------2------3-----|
E---3-------3-------x-------x-------x------0------1-----|

|   s  = slide
|   () = let ring
|
|
|

INTRO x2
E------------------------------------------------------------|
B------------------------------------------------------------|
G------------------------------------------------------------|
D-----------2-3-2--3s5-555--2-3-2----------------------------|
A----------------------------------3333--1111----------------|
E---3-3-3-3----------------------------------3333--1-3-1-----|

Verse
E---3--------------2--------------------------3--------------------------|
B---3--------------3--------------------------3--------------------------|
G---0--------------0--------------------------0--------------------------|
D---0--------------0--------------------------0--------------------------|
A---2--------------0--------------------------2--------------------------|
E---3--------------3--------------------------3--------------------------|
You didnt wake up, Before you hit the ground, I didnt stay up long enough


E---2--------------3--------------------------2-------------------0--------|
B---3--------------3--------------------------3-------------------1--------|
G---0--------------0--------------------------0-------------------0--------|
D---0--------------0--------------------------0-------------------2--------|
A---0--------------2--------------------------0-------------------3--------|
E---3--------------3--------------------------3-------------------x--------|
To see you falling, You never asked for the world but then you jumped from


E---0--------------------------------------------3-------------------------|
B---1--------------------------------------------3-------------------------|
G---0--------------------------------------------0-------------------------|
D---2--------------------------------------------0-------------------------|
A---3--------------------------------------------2-------------------------|
E---x--------------------------------------------3-------------------------|
The roof top, because you had to have the last laugh

E---3-----------0-----3-------------0--------3--------------0-----------|
B---3-----------0-----3-------------0--------3--------------0-----------|
G---0-----------0-----0-------------0--------0--------------0-----------|
D---0-----------2-----0-------------2--------0--------------2-----------|
A---2-----------2-----2-------------2--------2--------------2-----------|
E---3-----------0-----3-------------0--------3--------------0-----------|
Look where you are, Look where you are now, Look where you are

E---0--------------(2)--------------------------------------------------------|
B---1--------------(3)--------------------------------------------------------|
G---0--------------(2)--------------------------------------------------------|
D---2--------------(0)--------------------------------------------------------|
A---3---------------x---------------------------------------------------------|
E---x---------------x---------------------------------------------------------|
I heard you say, Everyday above ground was a good one


E------------------------------------------------------------|
B------------------------------------------------------------|
G------------------------------------------------------------|
D-----------2-3-2--3s5-555--2-3-2----------------------------|
A----------------------------------3333--1111----------------|
E---3-3-3-3----------------------------------3333--1-3-1-----|


E---3--------------2--------------------------------3--------------------------|
B---3--------------3--------------------------------3--------------------------|
G---0--------------0--------------------------------0--------------------------|
D---0--------------0--------------------------------0--------------------------|
A---2--------------0--------------------------------2--------------------------|
E---3--------------3--------------------------------3--------------------------|
You never see her, Hair in braids and blue eyes, Because we didnt try hard enough


E---2--------------3--------------------------2------0-------------------------|
B---3--------------3--------------------------3------1-------------------------|
G---0--------------0--------------------------0------0-------------------------|
D---0--------------0--------------------------0------2-------------------------|
A---0--------------2--------------------------0------3-------------------------|
E---3--------------3--------------------------3------x-------------------------|
Shes still waiting to hear you sing a song for her, You jumped from


E---0--------------------------------------------3-------------------------|
B---1--------------------------------------------3-------------------------|
G---0--------------------------------------------0-------------------------|
D---2--------------------------------------------0-------------------------|
A---3--------------------------------------------2-------------------------|
E---x--------------------------------------------3-------------------------|
The roof top, because you had to have the last laugh

E---3-----------0----3-------------0----3-------------0-----------|
B---3-----------0----3-------------0----3-------------0-----------|
G---0-----------0----0-------------0----0-------------0-----------|
D---0-----------2----0-------------2----0-------------2-----------|
A---2-----------2----2-------------2----2-------------2-----------|
E---3-----------0----3-------------0----3-------------0-----------|
Where are you now, Where are you now, Where are you now

E---0--------------(2)--------------------------------------------------------|
B---1--------------(3)--------------------------------------------------------|
G---0--------------(2)--------------------------------------------------------|
D---2--------------(0)--------------------------------------------------------|
A---3---------------x---------------------------------------------------------|
E---x---------------x---------------------------------------------------------|
I heard you say, Everyday above ground was a good one


E---3333333333333333--1---------------------------3--------------------------|
B---3333333333333333--3---------------------------3--------------------------|
G---0000000000000000--2---------------------------0--------------------------|
D---0000000000000000--0---------------------------0--------------------------|
A---2222222222222222--0---------------------------2--------------------------|
E---3333333333333333--x---------------------------3--------------------------|
                      I want to live so much that I am gunna die


E-1------------------------3--------------------------|
B-3------------------------3--------------------------|
G-2------------------------0--------------------------|
D-0------------------------0--------------------------|
A-0------------------------2--------------------------|
E-x------------------------3--------------------------|
I want to run so fast that I am going to fall

E-1------------------------3--------------------------|
B-3------------------------3--------------------------|
G-2------------------------0--------------------------|
D-0------------------------0--------------------------|
A-0------------------------2--------------------------|
E-x------------------------3--------------------------|
I probably said it once before I apologize

E-1------------------------1--------------------------|
B-1------------------------1--------------------------|
G-2------------------------2--------------------------|
D-3------------------------3--------------------------|
A-3------------------------3--------------------------|
E-1------------------------1--------------------------|
This will be the last time, This will be the last time

E------------------------------------------------------------|
B------------------------------------------------------------|
G------------------------------------------------------------|
D-----------2-3-2--3s5-555--2-3-2----------------------------|
A----------------------------------3333--1111----------------|
E---3-3-3-3----------------------------------3333--1-3-1-----|

E---3-----------0----3-------------0----3-------------0-----------|
B---3-----------0----3-------------0----3-------------0-----------|
G---0-----------0----0-------------0----0-------------0-----------|
D---0-----------2----0-------------2----0-------------2-----------|
A---2-----------2----2-------------2----2-------------2-----------|
E---3-----------0----3-------------0----3-------------0-----------|
Where are you now, Where are you now, Where are you now

E---0--------------(2)--------------------------------------------------------|
B---1--------------(3)--------------------------------------------------------|
G---0--------------(2)--------------------------------------------------------|
D---2--------------(0)--------------------------------------------------------|
A---3---------------x---------------------------------------------------------|
E---x---------------x---------------------------------------------------------|
I heard you say, Everyday above ground was a good one


E--------------------------------------------------------(3)----|
B--------------------------------------------------------(3)----|
G--------------------------------------------------------(0)----|
D-----------2-3-2--3s5-555--2-3-2------------------------(0)----|
A----------------------------------3333--1111------------(2)----|
E---3-3-3-3----------------------------------3333--1-3-1-(3)----|
Добавлено: 18.07.2012
Другие материалы по этой песне:
  • Аккорды и текст

Страница создана 18.07.2012
http://primanota.ru/blind-melon/last-laugh-chords.htm
Привет, Гость.
Предлагаем пройти революционный курс по гитаре.
Подарок от PrimaNota.Ru, забирай!