PrimaNota.ru - самый крупный в мире бесплатный архив песенных текстов, аккордов, табулатур и нот


Blind Lemon Jefferson - Matchbox Blues - аккорды и текст, таба, видео

Регистрация Запомнить меня
Войти через:  Facebook Google Twitter Vk Yandex Mail.ru

Blind Lemon Jefferson - Matchbox Blues - аккорды и текст, таба, видео

Печатать
Просмотров: 159
Авторы музыки: Blind Lemon Jefferson
Авторы текста: Blind Lemon Jefferson
Matchbox Blues
Blind Lemon Jefferson
Artist : Blind Lemon Jefferson
Song   : Matchbox Blues
________________________________________________
Added by Mikhailo (tabteam@hm6.ru)
________________________________________________
                              
    
E||--------------12----|-------7/9--------------|-----------------0---------|
B||--------------------|-------------10---------|-------10----10----1p0----|
G||--------------------|------------------------|------------------------2--|
D||--------------------|------------------------|---------------------------|
A||--------------x-----|--x------x---x-----x----|--0------------------------|
E||--------------------|------------------------|---------------------------|
                                       
-----------------7/9-----|--12--7/9-----12--7/9-----12--7/9-----0---------|
---------------------10--|----------10----------10----------10-----1p0----|
-------------------------|---------------------------------------------2--|
-------------------------|------------------------------------------------|
--0----x----0------x-----|------------------------------------------------|
-------------------x-----|------------------------------------------------|
                                     
-----3--3----3---------|-----5--8b-------5----|--5--5--5--5--5--5--5----|
--------2----2---------|----------------------|--7--7--7--7--7--6--7----|
--------2----2---------|----------------------|-------------------------|
-----------------------|----------------------|-------------------------|
--0---------------x----|--0--------------x----|-------------------------|
------------------x----|-----------------x----|-------------------------|
                                         
--8b-------5--7--5-----0--------0--|-----3----------5--5--5--5-----|
--------------------7----1--2-----|-----2----------2--2--2--2-----|
-----------------------------------|-----2----------------------0--|
-----------------------------------|-------------2-----------------|
-----------------------------------|--0-------0--------------------|
-----------------------------------|-------------------------------|
                              
-----------------------------|--------------------------|
-----------------------------|--------0-----1p0---------|
--2--------------------------|-----2-----2------2-------|
-----4--2--------------------|--------------------------|
-----------4--3----2----x----|--x------------------x----|
------------------------x----|--x------------------x----|
                                          
-------7/9-------0------0--|-----3----------5--5--5--|--5----5----5----------|
-------------10----1/2----|-----2----------2--2--2--|--2----2----2----------|
---------------------------|-----2-------------------|--2----2----2----------|
---------------------------|-------------2-----------|-----------------x-----|
--0------------------------|--0-------0--------------|-----------------0-----|
---------------------------|-------------------------|-----------------x--0--|
                                         
--------------------------|--------------------------|-------------|
--------------------------|--------------------------|-------2-----|
--------------------------|--2--2--------------------|-------2-----|
--------------2--2--4--4--|--------4--4--2--2--------|-------2-----|
--0--0--3--3--------------|--------------------4--4--|--0----------|
--------------------------|--------------------------|----------0--|
                                   
--------------------------|-------------|--------------------|
--------------------------|-------------|--------------------|
--5-----4-----2-----------|-------2-----|--------------------|
--------------------4-----|-------2-----|-----------2--3--4--|
-----2-----0--------------|--0----------|--0--3--4-----------|
-----------------2-----0--|----------0--|--------------------|
                                        
--------------------|-----5--5--5--5-----|-------------------|-------------|
--------------------|-----2--2--2--2-----|-------------------|-------------|
--2-----------------|--------------2--4--|--2----------------|-------------|
-----2--------------|--------------------|-----4--2----------|-------------|
--------3--4--0-----|--0-----------------|-----------4--3----|--2----x-----|
-----------------2--|--------------------|-------------------|-------x--2--|
                                           
-----------------0---------|--------------------------|--------3-----|
--------------------1/2----|--2-----------------------|--------2-----|
---------------------------|--------------2-----------|-----2--2-----|
--4-----3-----2------------|-----0--1--2--------------|--------------|
------------------------0--|-----------------4--0-----|--0--------0--|
-----1-----0---------------|-----------------------2--|--------------|
 
-----5--5--5--5----5----||
-----2--2--2--2----2----||
-------------------2----||
--2---------------------||
-------------------0----||
------------------------||
Добавлено: 02.12.2013
Другие материалы по этой песне:

Страница создана 08.03.2012
http://primanota.ru/blind-lemon-jefferson/matchbox-blues-chords.htm
Привет, Гость.
Предлагаем пройти революционный курс по гитаре.
Подарок от PrimaNota.Ru, забирай!