PrimaNota.ru - самый крупный в мире бесплатный архив песенных текстов, аккордов, табулатур и нот


Blind Iris - Drive - таба, видео

Регистрация Запомнить меня
Войти через:  Facebook Google Twitter Vk Yandex Mail.ru

Blind Iris - Drive - таба, видео

Печатать
Просмотров: 177
-----------------------------------------------------------------------------
                             Drive- Blind Iris
-----------------------------------------------------------------------------
Tabbed by: larry jones
Email: mochobotica@cox.net

Intro:
e|-------------------------------------------------------------------|
B|----5----------4/5----5----------4/5----5--------------------------|
G|----5-----------------5-----------------5--------------------------|
D|-------------------------------------------------------------------|
A|-------------------------------------------------------------------|
E|-------------------------------------------------------------------|

Verse:
e|----------------------------------------------------|
B|----15p13--12p10----15p13--12-10--------------------|
G|----------------------------------------------------|
D|----------------------------------------------------|
A|----------------------------------------------------|
E|----------------------------------------------------|

e|----------------------------------------------------|
B|----------------------------------------------------|
G|-------------------------12-------------------------|
D|------------------12h14------14---------------------|
A|-----------12h14------------------------------------|
E|----12h14-------------------------------------------|

I know it is terrible, but nobody even attempted this song before, so I thought I'd 
as the first guy to tab this awesome song by a great band out of Utah.  Peace.

http://newscafe.ansci.usu.edu/archive/nov2003/1104_blindiris.html
Добавлено: 09.05.2012
Другие материалы по этой песне:
  • Аккорды и текст

Страница создана 09.05.2012
http://primanota.ru/blind-iris/drive-chords.htm
Привет, Гость.
Предлагаем пройти революционный курс по гитаре.
Подарок от PrimaNota.Ru, забирай!