PrimaNota.ru - самый крупный в мире бесплатный архив песенных текстов, аккордов, табулатур и нот


Blind Guardian - Twilight Of The Gods - таба, видео

Регистрация Запомнить меня
Войти через:  Facebook Google Twitter Vk Yandex Mail.ru

Blind Guardian - Twilight Of The Gods - таба, видео

Печатать
Просмотров: 156
-------------------------------------------------------------------------------
                             Twilight of the Gods - Blind Guardian
-------------------------------------------------------------------------------
Tabbed by: jackwbradley47
E-mail: jackwbradley47@gmail.com

            I had seen that a tab hadn't been uploaded for this song and 
            in my opinion this song is pretty great - so yeah check it
            out, see what you think and leave a rating and a comment!
           
                                  Good Luck!
Tuning: Eb Standard

Intro:
e|---------------------------------------------------------------------------|
B|---------------------------------------------------------------------------|
G|-/9~~-(9)--7---7---7-------------------------------------------------------|
D|---------8---8---8---8-----9---9-7-----------------------------------------|
A|---------------------------7---7-5---8-----5---5-7---2---------------------|
E|-----------------------0-0---0-----0-6-0-0-3-0-3-5-0-0---------------------|
                        x x   x     x   x x   x     x
e|---------------------------------------------------------------------------|
B|---------------------------------------------------------------------------|
G|---------------------------------12-14-15----12-14-12----12-14-15----------|
D|-----7---7-7------------------14----------14----------14-------------------|
A|-----9---9-5---8-----5---5-7-----------------------------------------------|
E|-0-0---0-----0-6-0-0-3-0-3-5-----------------------------------------------|
   x x   x     x   x x   x
e|---------------------------------------------------------------------------|
B|-15-14-12-14-12----12------------------------------------------------------|
G|----------------14----14-12----12-14-15----12-14-12----12-14-15------------|
D|----------------------------14----------14----------14---------------------|
A|---------------------------------------------------------------------------|
E|---------------------------------------------------------------------------|

e|-15-14-12-14-12----12-------------------------------22fb22fb---------------|
B|----------------15----15-12-15fb~-17fb~-18fb~-20fb~------------------------|
G|---------------------------------------------------------------------------|
D|---------------------------------------------------------------------------|
A|---------------------------------------------------------------------------|
E|---------------------------------------------------------------------------|

e|---------------------------------------------------------------------------|
B|---------------------------------------------------------------------------|
G|---------------------------------------------------------------------------|
D|-9-9-9-9-10-9-9-9-12-9-9-9-10-9-9-9-9-9-9-9-10-9-9-9-12-9-9-9-10-9-9-9-9---|
A|---------------------------------------------------------------------------|
E|---------------------------------------------------------------------------|

e|---------------------------------------------------------------------------|
B|---------------------------------------------------------------------------|
G|---------------------------------------------------------------------------|
D|-9-9-9-10-9-9-9-12-9-9-9-10-9-9-9-9-9-9-9-12-9-9-9-10-10-------------------|
A|---------------------------------------------------------------------------|
E|---------------------------------------------------------------------------|

Verse 1:
e|---------------------------------------------------------------------------|
B|---------------------------------------------------------------------------|
G|---------------------------------------------------------------------------|
D|-----------------------------------------------8-8-8-8-8-8-8-8-8-----------|
A|-----------------------------------------------6-6-6-6-6-6-6-6-6-----------|
E|-0-0-0-0-0-0-0-0-0-0-0-0-0-0-0-0-0-0-0-0-0-0-0-6-6-6-6-6-6-6-6-6-----------|
   x x x x x x x x   x x x x x x x x   x x x x   x x x x x x x x
e|---------------------------------------------------------------------------|
B|---------------------------------------------------------------------------|
G|---------------------------------------------------------------------------|
D|---------------------------------------------------------------------------|
A|-9-9-9-9-9-9-9-9-9-4-5-----------------------------------------------------|
E|-7-7-7-7-7-7-7-7-7-2-3-0-0-0-0-0-0-0-0-0-0-0-0-0-0-0-0-0-0-0-0-0-0-0-------|
   x x x x x x x x       x x x x x x x x   x x x x x x x x   x x x x
e|---------------------------------------------------------------------------|
B|---------------------------------------------------------------------------|
G|-----------------------------------------9-8-9-9-8-9-12-9-12-11-10-11------|
D|-8-8-8-8-8-8-8-8-8---------------------------------------------------------|
A|-6-6-6-6-6-6-6-6-6-9-9-9-9-9-9-9-9-9-4-5-----------------------------------|
E|-6-6-6-6-6-6-6-6-6-7-7-7-7-7-7-7-7-7-2-3-----------------------------------|
   x x x x x x x x   x x x x x x x x
e|---------------------------------------------------------------------------|
B|----------12-11-12------------------------------------12-11-12-------------|
G|-11-10-11----------11-12-9-8-9-9-8-9-12-9-12-11-10-11----------11-12-------|
D|---------------------------------------------------------------------------|
A|---------------------------------------------------------------------------|
E|---------------------------------------------------------------------------|

Pre-Chorus 1:
e|---------------------------------------------------------------------------|
B|-13-12---------------------------------------------12-11-12-17~------------|
G|-------14-12-11--12-11--------------------12-11-12-------------------------|
D|-----------------------14-13-----14-13-14----------------------------------|
A|-----------------------------14--------------------------------------------|
E|---------------------------------------------------------------------------|

Chorus 1:
e|---------------------------------------------------------------------------|
B|---------9-7-----------5-7-5---------7-5-----5---7-------------9-7---------|
G|-----9-------9-----7-------------6-------6-----5---7-------9-------9-------|
D|---9---9---------7---7---------7---7-----------------9---9---9-------------|
A|-7-------------5-------------4-------------3-----------7-------------------|
E|---------------------------------------------------------------------------|

e|---------------------------------------------------------------------------|
B|---------5-7-5---------7-5-------------------------------------------------|
G|-----7-------------6-------6-----------------------------------------------|
D|---7---7---------7---7-------4-4-4-4--4-4-4-4--4-5-4-4-4-4-----------------|
A|-5-------------4-------------2-2-2-2--2-2-2-2--2-3-2-2-2-2--2-3---2--------|
E|-----------------------------2-2-2-2--2-2-2-2--2-3-2-2-2-2------5---3-5-2*-|

e|---------------------------------------------------------------------------|
B|---------------------------------------------------------------------------|
G|---------------------------------------------------------------------------|
D|-4-4-4-4--4-4-4-4--4-5-4-4-4-4---------------------------------------------|
A|-2-2-2-2--2-2-2-2--2-3-2-2-2-2-2-3---2---3-2-------------------------------|
E|-2-2-2-2--2-2-2-2--2-3-2-2-2-2-----5---3-----------------------------------|

Bridge 1:
e|------------12--------------15--------------15-----------------------------|
B|-/12~-12-12----12-15~-15-15----15-14~-14-14----14/17-15-13-15-12~----------|
G|---------------------------------------------------------------------------|
D|---------------------------------------------------------------------------|
A|---------------------------------------------------------------------------|
E|---------------------------------------------------------------------------|

e|--------------12--------------15--------------15---------------------------|
B|-(12)-9/12-12----12-15~-15-15----15-14~-14-14----14/17-15-13-15-12---------|
G|---------------------------------------------------------------------------|
D|---------------------------------------------------------------------------|
A|---------------------------------------------------------------------------|
E|---------------------------------------------------------------------------|
Verse 2:
e|---------------------------------------------------------------------------|
B|---------------------------------------------------------------------------|
G|---------------------------------------------------------------------------|
D|---------9---------9-8---------7---------7-6---------5---------------------|
A|---------7---------7-6-5-5-5-5-5-5-5-5-5-5-4-3-3-3-3-3---------5---------8-|
E|-0-0-0-0---0-0-0-0-------------------------------------3-3-3-3-3-6-6-6-6-6-|

e|---------------------------------------------------------------------------|
B|---------------------------------------------------------------------------|
G|---------------------------------------------------------------------------|
D|-----------9---------9-8---------7---------7-6---------5-------------------|
A|-9---------7---------7-6-5-5-5-5-5-5-5-5-5-5-4-3-3-3-3-3---------5---------|
E|-7-0-0-0-0---0-0-0-0-------------------------------------3-3-3-3-3-6-6-6-6-|
                Build up:
e|-------------|-------------------------------------------------------------|
B|-------------|-------------------------------------------------------------|
G|-------------|------8-9-8-------------------8-9-8------------------8-9-8---|
D|-------------|-9-10-------9-7-10-9-----9-10-------9-7-10-9-----9-10--------|
A|-8-9---------|-------------------------------------------------------------|
E|-6-7-7-7-7-7-|---------------------7-7---------------------7-7-------------|

e|--------------------------------/15~-12~-14-15-14----14brb~-11~------------|
B|--------------------------------------------------17-----------------------|
G|-------------------8-9-8---------------------------------------------------|
D|-9-7-10-9-----9-10-------9-7-10--------------------------------------------|
A|---------------------------------------------------------------------------|
E|----------7-7--------------------------------------------------------------|
                                              Pre-Chorus 2:
e|-----------------------14-15-14----14brb~-11|------------------------------|
B|-12-13-12-------/17-12----------17----------|12-13-12----13--13-12---------|
G|----------14-12-----------------------------|---------14-----------14-12-11|
D|--------------------------------------------|------------------------------|
A|--------------------------------------------|------------------------------|
E|--------------------------------------------|------------------------------|

e|--------------------------------------------17-----------------------------|
B|-----------------------------------12-11-12-----13-12----------------------|
G|-12-11--------------------12-11-12--------------------14-12-11-------------|
D|-------14-13-----14-13-14--------------------------------------------------|
A|-------------14------------------------------------------------------------|
E|---------------------------------------------------------------------------|

e|-------------------------------------------17------------------------------|
B|----------------------------------12-11-12---------------------------------|
G|-12-11-------------------12-11-12------------------------------------------|
D|-------14-13----14-13-14---------------------------------------------------|
A|-------------14------------------------------------------------------------|
E|---------------------------------------------------------------------------|

Chorus 2:
e|---------------------------------------------------------------------------|
B|---------9-7-----------5-7-5---------7-5-----5---7-------------9-7---------|
G|-----9-------9-----7-------------6-------6-----5---7-------9-------9-------|
D|---9---9---------7---7---------7---7-----------------9---9---9-------------|
A|-7-------------5-------------4-------------3-----------7-------------------|
E|---------------------------------------------------------------------------|

e|---------------------------------------------------------------------------|
B|---------5-7-5---------7-5-----5---7---------------------------------------|
G|-----7-------------6-------6-----5---7-------------------------------------|
D|---7---7---------7---7-----------------9-----------------------------------|
A|-5-------------4-------------3---------------------------------------------|
E|---------------------------------------------------------------------------|
Solo 1:
e|-19-14----------14-19-14----------14-19-14---------14-19-14----------------|
B|-------17----17----------17----17---------17----17----------17-------------|
G|----------16----------------16---------------16----------------16-14-16-17-|
D|---------------------------------------------------------------------------|
A|---------------------------------------------------------------------------|
E|---------------------------------------------------------------------------|

e|--------------19-14----------14-19-14----------14-19-14---------14-19-14-------|
B|-16-16hb-16hb-------17----17----------17----17---------17----17----------17----|
G|-----------------------16----------------16---------------16----------------16-|
D|-------------------------------------------------------------------------------|
A|-------------------------------------------------------------------------------|
E|-------------------------------------------------------------------------------|

e|--------------------------------------------------------15-14-12-14------------|
B|----------16-17-19-0-8-5-0-12-8-0-15-12-0-15-12-15-15fb-------------15-15-15fb-|
G|-14-16-17----------------------------------------------------------------------|
D|-------------------------------------------------------------------------------|
A|-------------------------------------------------------------------------------|
E|-------------------------------------------------------------------------------|

e|--------------------------------------15-14----14--------------------------|
B|-0-8-5-0-12-8-0-15-12-0-15-12-15-15fb-------17----15-17brb-----------------|
G|---------------------------------------------------------------------------|
D|---------------------------------------------------------------------------|
A|---------------------------------------------------------------------------|
E|---------------------------------------------------------------------------|

e|-h19p14p12h19p14p12h20p15p12h20p15p12h19p14p12h19p14p12h17p14p11h17p14p11--|
B|---------------------------------------------------------------------------|
G|---------------------------------------------------------------------------|
D|---------------------------------------------------------------------------|
A|---------------------------------------------------------------------------|
E|---------------------------------------------------------------------------|
                                                  _____________Tremolo____________
e|---------------------------------------------19-22-22-22-22-22-22-22-22-22-22-22-|
B|---------------------------------------------------------------------------------|
G|---------------------------------------------------------------------------------|
D|-10-9-7-10-9-7-10-9-7-10-9-7-12-10-9-12-10-9-------------------------------------|
A|---------------------------------------------------------------------------------|
E|---------------------------------------------------------------------------------|

e|-21-22-21-19-21-19----19------16-17-16-14-16-14----14----------------------------|
B|-------------------22----22fb-------------------17----17-16-17-16-14-16-14----14-|
G|---------------------------------------------------------------------------16----|
D|---------------------------------------------------------------------------------|
A|---------------------------------------------------------------------------------|
E|---------------------------------------------------------------------------------|

e|---------------------------------------------------------------------------|
B|---------------------------------------------------------------------------|
G|-16-14-16-14-13-14-13-16---------------------------------------------------|
D|---------------------------------------------------------------------------|
A|---------------------------------------------------------------------------|
E|---------------------------------------------------------------------------|

Bridge 2:
e|------------12--------------15--------------15-----------------------------|
B|-/12~-12-12----12-15~-15-15----15-14~-14-14----14/17-15-13-15-12~----------|
G|---------------------------------------------------------------------------|
D|---------------------------------------------------------------------------|
A|---------------------------------------------------------------------------|
E|---------------------------------------------------------------------------|

e|--------------12--------------15--------------15---------------------------|
B|-(12)-9/12-12----12-15~-15-15----15-14~-14-14----14/17-15-13-15-12---------|
G|---------------------------------------------------------------------------|
D|---------------------------------------------------------------------------|
A|---------------------------------------------------------------------------|
E|---------------------------------------------------------------------------|

Build up:
e|---------------------------------------------------------------------------|
B|---------------------------------------------------------------------------|
G|--------------8-9-8-------------------8-9-8--------------------------------|
D|---------9-10-------9-7-10-9-----9-10-------9-7-10-------------------------|
A|---------------------------------------------------------------------------|
E|-7-7-7-7---------------------7-7-------------------------------------------|

e|---------------------------------------------------------------------------|\
B|--------------------------------------------------12-11-12-----------------| \
G|-9-8-9--9-8-9--12-11-12--9-12--11-10-11--11-10-11-----------11-12----------|  \
D|---------------------------------------------------------------------------|  /X4
A|---------------------------------------------------------------------------| /
E|---------------------------------------------------------------------------|/

Pre-Chorus 3:
e|---------------------------------------------------------------------------|
B|-13-12---------------------------------------------12-11-12-17~------------|
G|-------14-12-11--12-11--------------------12-11-12-------------------------|
D|-----------------------14-13-----14-13-14----------------------------------|
A|-----------------------------14--------------------------------------------|
E|---------------------------------------------------------------------------|

e|---------------------------------------------------------------------------|
B|-13-12---------------------------------------------12-11-12-17~------------|
G|-------14-12-11--12-11--------------------12-11-12-------------------------|
D|-----------------------14-13-----14-13-14----------------------------------|
A|-----------------------------14--------------------------------------------|
E|---------------------------------------------------------------------------|

Chorus 3:
e|---------------------------------------------------------------------------|
B|---------9-7-----------5-7-5---------7-5-----5---7-------------9-7---------|
G|-----9-------9-----7-------------6-------6-----5---7-------9-------9-------|
D|---9---9---------7---7---------7---7-----------------9---9---9-------------|
A|-7-------------5-------------4-------------3-----------7-------------------|
E|---------------------------------------------------------------------------|

e|---------------------------------------------------------------------------|
B|---------5-7-5---------7-5-----5---7---------------------------------------|
G|-----7-------------6-------6-----5---7-------------------------------------|
D|---7---7---------7---7-----------------9-----------------------------------|
A|-5-------------4-------------3---------------------------------------------|
E|---------------------------------------------------------------------------|

Outro:
e|-/19----19----19-18~-18-18----18-17~-17-15----15-17fb-17-15-17-15-15\------|
B|-----17----17--------------17--------------17------------------------------|
G|---------------------------------------------------------------------------|
D|---------------------------------------------------------------------------|
A|---------------------------------------------------------------------------|
E|---------------------------------------------------------------------------|

e|-/19----19----19-18~-18-18----18-17~-17-15----15-17fb-17-15-17-15-15\------|
B|-----17----17--------------17--------------17------------------------------|
G|---------------------------------------------------------------------------|
D|---------------------------------------------------------------------------|
A|---------------------------------------------------------------------------|
E|---------------------------------------------------------------------------|

e|-/19----19----19-18~-18-18----18-17~-17-15----15-17fb-17-15-17-15-15\------|
B|-----17----17--------------17--------------17------------------------------|
G|---------------------------------------------------------------------------|
D|---------------------------------------------------------------------------|
A|---------------------------------------------------------------------------|
E|---------------------------------------------------------------------------|

e|-/19----19----19-18~-18-18----18-17~-17-15----15-17fb-17-15-17-15-15\------|
B|-----17----17--------------17--------------17------------------------------|
G|---------------------------------------------------------------------------|
D|---------------------------------------------------------------------------|
A|---------------------------------------------------------------------------|
E|---------------------------------------------------------------------------|

e|-/19----19----19-18~-18-18----18-17~-17-15----15-17fb-17-15-17-15-14-------|
B|-----17----17--------------17--------------17------------------------17~~--|
G|---------------------------------------------------------------------------|
D|---------------------------------------------------------------------------|
A|---------------------------------------------------------------------------|
E|---------------------------------------------------------------------------|
************************************

| /   slide up
| \   slide down
| h   hammer-on
| p   pull-off
| ~   vibrato
| +   Natural Harmonic
| *   Pinch Harmonic
| x   Mute note
| hb  Half bend
| fb  Full bend
| pb  Pre-bend
| br  Bend release
| pbr Pre-bend release
| brb Bend release bend

************************************
Добавлено: 25.08.2015
Вам также может быть интересно:
Другие материалы по этой песне:

Страница создана 25.08.2015
http://primanota.ru/blind-guardian/twilight-of-gods-chords.htm
Привет, Гость.
Предлагаем пройти революционный курс по гитаре.
Подарок от PrimaNota.Ru, забирай!