PrimaNota.ru - самый крупный в мире бесплатный архив песенных текстов, аккордов, табулатур и нот


Blind Guardian - The Bards Song The Hobbit - текст песни, таба, видео

Регистрация Запомнить меня
Войти через:  Facebook Google Twitter Vk Yandex Mail.ru

Blind Guardian - The Bards Song The Hobbit - текст песни, таба, видео

Печатать
Просмотров: 211
Авторы музыки: Hansi Kürsch, André Olbrich
Авторы текста: Hansi Kürsch
As recorded by Blind Guardian
(From the 1993 Album SOMEWHERE FAR BEYOND)


Transcribed by sergio miguelez(elmomias@hotmail.com)

 

 

G5
3 5 x x x x Bb5
x 1 3 x x x D5
x 5 7 x x x E5
x 7 9 x x x 
A5
x 0 2 x x x E5(type 2)
0 2 x x x x F#5
2 4 4 x x x B5
x 2 4 4 x x 
C5
x 3 5 5 x x Bb5(type 2)
x 1 3 3 x x Bb5VI
x 1 3 3 x x A5(type 2)
5 7 x x x x 
F5
1 3 x x x x F5(type 2)
1 3 3 x x x G5(type 2)
3 5 5 x x x 


Gtr I (E A D G B E) - 'dist'
Gtr II (E A D G B E) - 'dist'
Gtr III (E A D G B E) - 'dist oct'
Gtr IV (E A D G B E) - 'acoustic guitar'
Gtr V (E A D G B E) - 'acostic'
Gtr VI (E A D G B E) - 'acoustic'


            Intro
  Q=160
             F5   G5A5    G5                  A5B5    A5
 3/4
             Gtr I
                             PM--|                       PM--|
                             |-3-|                       |-3-|
  W          Q.   E E E   Q  E E E E E   Q.   E E E   Q  E E E E E
|--------||-------------|--------------|------------|--------------|
|--------||o------------|--------------|------------|--------------|
|--------||-------------|--------------|------------|--------------|
|--------||-------------|--------------|------------|--------------|
|--------||o-3----5-7---|-5--------5---|-5----7-9---|-7--------7---|
|--------||--1----3-5---|-3--3-3-3-3---|-3----5-7---|-5--5-5-5-5---|


                                                          1.
  E5    D5    C5      D5    C5    B5      C5    B5    G5   A5
    PM|   PM|   PM|     PM|   PM|   PM|     PM|   PM|
  E S S E S S E S S   E S S E S S E S S   E S S E S S Q    H    Q
|-------------------|-------------------|----------------|----------||
|-------------------|-------------------|----------------|---------o||
|-------------------|-------------------|----------------|----------||
|-9-----7-----5-----|-7-----5-----4-----|-5-----4--------|-2--------||
|-7-7-7-5-5-5-3-3-3-|-5-5-5-3-3-3-2-2-2-|-3-3-3-2-2-2-5--|-0-------o||
|-------------------|-------------------|-------------3--|----------||


    2.
    A5          G5            Bb5         G5        Bb5
    Gtr II
    H.          H.            H.          H.        H.
    |           |             |           |         |
    /           /             /           /         /

                                          ~~
    Q.   E Q    Q.   E Q      Q.   E Q    H.        Q.   E Q
||------------|------------||-----------|---------|-----------|
||o-----------|-----------o||--------3--|---------|--------3--|
||--2------2--|-0----2-4---||-3----5----|---------|-3----5----|
||-------2----|------------||-----------|-5-------|-----------|
||o-----------|-----------o||-----------|---------|-----------|
||------------|------------||-----------|---------|-----------|


               Verse
  B5                        Em          Dm          Em
  Gtr II
  H.            H.          H.          H.          H.
  |             |
  /             o

  Q.   E Q      Q.   E Q    Q.   E Q    Q.   E Q    Q.   E Q
|-----------||------------|-----------|-----------|-------------||
|-----------||o-----------|-----------|-----------|------------o||
|-4----5-7--||------------|------4----|------2----|------4------||
|-----------||-------2----|-2------5--|-0------3--|-2------5----||
|-----------||o-0------3--|-----------|-----------|------------o||
|-----------||------------|-----------|-----------|-------------||


  G5                   E5
  H.        +H.        H.        +H.
|---------|----------|---------|--------|
|---------|----------|---------|--------|
|---------|----------|---------|--------|
|---------|----------|---------|--------|
|-5-------|-(5)------|-2-------|-(2)----|
|-3-------|-(3)------|-0-------|-(0)----|


   Chorus
    Am          Em          Dm          Em
    Q.   E Q    Q.   E Q    Q.   E Q    Q.   E Q
||------------|-----------|-----------|------------||
||o-----------|-----------|-----------|-----------o||
||------------|------4----|------2----|------4-----||
||-------2----|-2------5--|-0------3--|-2------5---||
||o-0------3--|-----------|-----------|-----------o||
||------------|-----------|-----------|------------||


  F5   G5A5    G5                  A5B5    A5
                  PM--|                       PM--|
                  |-3-|                       |-3-|
  Q.   E E E   Q  E E E E E   Q.   E E E   Q  E E E E E
|------------|--------------|------------|--------------|
|------------|--------------|------------|--------------|
|------------|--------------|------------|--------------|
|------------|--------------|------------|--------------|
|-3----5-7---|-5--------5---|-5----7-9---|-7--------7---|
|-1----3-5---|-3--3-3-3-3---|-3----5-7---|-5--5-5-5-5---|


                                 1.
    F5        G5        E5        A5
    Gtr II
    H.        H.        H.        H.
    H.        H.        H.        H.
||----------|---------|---------|----------||
||o---------|---------|---------|---------o||
||----------|---------|---------|----------||
||----------|---------|---------|-2--------||
||o-3-------|-5-------|-2-------|-0-------o||
||--1-------|-3-------|-0-------|----------||
|
|   H.        H.        H.        H.
||----------|---------|---------|----------||
||o---------|---------|---------|---------o||
||----------|---------|---------|----------||
||----------|---------|---------|----------||
||o---------|---------|---------|---------o||
||----------|---------|---------|----------||


    Guitar Solo 1
    2.
     A5               E5
      H.               H.
      |                |
      /                /

     Gtrs I, III
      ~~~~~~~~~~~~~~~~~~~~~~
      H.               H.
|-||----------------|-----------------|
|-||-15b17----------|-15b17-----------|
|-||----------------|-----------------|
|-||----------------|-----------------|
|-||----------------|-----------------|
|-||----------------|-----------------|
|
|    Gtr IV
|     Q.      E  Q     Q.      E  Q
|-||---------12-----|-----------------|
|-||-10---------13--|---------12------|
|-||----------------|--9---------12---|
|-||----------------|-----------------|
|-||----------------|-----------------|
|-||----------------|-----------------|


  D5             E5             A5
  Gtr II
   H.             H.             H.
   |              |              |
   /              /              /

                                 ~~~~~~~~~~~~~~~
   Q.    E  Q     Q.    E  Q     H.
|--------------|--------------|----------------|
|-15----17h18--|-17----15-----|-15b17----------|
|--------------|----------16--|----------------|
|--------------|--------------|----------------|
|--------------|--------------|----------------|
|--------------|--------------|----------------|
|
|  Q.    E  Q     Q.    E  Q     Q.      E  Q
|--------------|--------------|---------12-----|
|----------10--|-------10-12--|-10---------13--|
|-10----12-----|-12-----------|----------------|
|--------------|--------------|----------------|
|--------------|--------------|----------------|
|--------------|--------------|----------------|


  E5(type 2)       D5
   H.               H.
   |                |
   /                /

 ~~~~~~~
   H.               Q.    E  Q
|----------------|---------------|
|-15b17----------|-15----17p15---|
|----------------|---------------|
|----------------|---------------|
|----------------|---------------|
|----------------|---------------|
|
|  Q.      E  Q     Q.    E  Q
|----------------|---------------|
|---------12-----|----------10---|
|--9---------12--|-10----12------|
|----------------|---------------|
|----------------|---------------|
|----------------|---------------|


  E5                F#5            C5             B5
   H.                H.             H.             H.
   |                 |              |              |
   /                 /              /              /

   ~~~               ~~~            ~~~                           ~~
   H        E  E     H      E  E    Q.    E  Q     E   S  S  S S  Q   E
|----------------||--------------|--------------|-----------------------|
|----------------||--------------|----------12--|-----------------------|
|-16-------------||-----------14-|-12----14-----|-11--11h12p11-9-11--12-|
|----------11h12-||-11-----12----|--------------|-----------------------|
|----------------||--------------|--------------|-----------------------|
|----------------||--------------|--------------|-----------------------|
|
|  Q.    E  Q        H.             H.             H.
|----------------||--------------|--------------|-----------------------|
|-------10-12----||--------------|--------------|-----------------------|
|-12-------------||--------------|--------------|-----------------------|
|----------------||--------------|--------------|-----------------------|
|----------------||--------------|--------------|-----------------------|
|----------------||--------------|--------------|-----------------------|


  B5             F#5            C5
   H.             H.             H.
   |              |              |
   /              /              /

   ~~~            ~~~            ~~~
   H      E  E    H      E  E    H      Q
|--------------|--------------|------------|
|--------------|--------------|------------|
|-11-----------|-----------14-|-12---------|
|--------11h12-|-11-----12----|------------|
|--------------|--------------|--------14--|
|--------------|--------------|------------|
|
|  H.             H.             H.
|--------------|--------------|------------|
|--------------|--------------|------------|
|--------------|--------------|------------|
|--------------|--------------|------------|
|--------------|--------------|------------|
|--------------|--------------|------------|


  B5                      D5
   H.                       H.
   |                        |
   /                        /

                            ~~~~
   H.                      +H      Q
|-----------------------|----------------|
|-----------------------|---------12-----|
|-14b16r================|=(14)-----------|
|-----------------------|----------------|
|-----------------------|----------------|
|-----------------------|----------------|
|
|                           ~~~~
|  Q      E.  S  S  S E     H      E  E
|-----------------------|----------------|
|-----------------------|----------------|
|-----------------------|--11-----12-11--|
|-11-----12--11h12p11-9-|----------------|
|-----------------------|----------------|
|-----------------------|----------------|


  A5             G5
   H.             H.
   |              |
   /              /

   Q.    E  Q     Q      +E   E  E  E
|--------------|----------------------|
|-14----15-14--|-------------------14-|
|--------------|-14b16r=(14)-14-11----|
|--------------|----------------------|
|--------------|----------------------|
|--------------|----------------------|
|
|  H.             H.
|--------------|----------------------|
|--------------|----------------------|
|--------------|----------------------|
|--------------|----------------------|
|--------------|----------------------|
|--------------|----------------------|


  B5                      D5              A5
   H.                       H.             H.
   |                        |              |
   /                        /              /

                            ~~~~
   H.                      +H      Q       Q.    E  Q
|-----------------------|---------------|---------------|
|-----------------------|---------12----|-14----15-14---|
|-14b16r================|=(14)----------|---------------|
|-----------------------|---------------|---------------|
|-----------------------|---------------|---------------|
|-----------------------|---------------|---------------|
|
|                           ~~~~
|  Q      E.  S  S  S E     H      E  E    H.
|-----------------------|---------------|---------------|
|-----------------------|---------------|---------------|
|-----------------------|--11-----12-11-|---------------|
|-11-----12--11h12p11-9-|---------------|---------------|
|-----------------------|---------------|---------------|
|-----------------------|---------------|---------------|


  G5                  Bb5(type 2)Bb5(type 2)
   H.                 H.         H.
   |                  |          |
   /                  /          /

                      ~~
   Q      +Q   E E    H     Q    Q    Q  Q
|------------------||----------|----------------|
|------------------||----------|----------------|
|-14b16r=(14)------||-------7--|-9---10--9tr10--|
|--------------8-7-||-8--------|----------------|
|------------------||----------|----------------|
|------------------||----------|----------------|


  D5         D5          Bb5(type 2)
  H.         H.          H.
  |          |           |
  /          /           /

  ~~         ~~          ~~
  H     Q    H     E E   H     Q
|----------|-----------|------------|
|----------|-----------|------------|
|-9-----7--|-----------|-------7----|
|----------|-7-----8-7-|-8----------|
|----------|-----------|------------|
|----------|-----------|------------|


  Bb5(type 2)     D5         D5          C5             Bb5(type 2)
   H.             H.         H.           H.             H.
   |              |          |            |              |
   /              /          /            /              /

                  ~~         ~~~~
   Q   Q  Q       H     Q    H.           Q    Q   Q     Q    Q       Q
|---------------|----------|-----------|--------------|-------------------|
|-10---8--8tr6--|----------|-8b10------|-13-----------|-------------------|
|---------------|-9-----7--|-----------|------12--14--|-15---14tr15--12---|
|---------------|----------|-----------|--------------|-------------------|
|---------------|----------|-----------|--------------|-------------------|
|---------------|----------|-----------|--------------|-------------------|


  G5                         G5
   H.                         H.
   |                          |
   /                          /

                   |--3--|
   E   E  E  E  E  S  S  S    E   E  E  E  Q
|--------------------------|------------------||
|--------------------------|------------------||
|--------12-14-15-14h15p14-|-12--14-12--------||
|-14--15-------------------|-----------15-14--||
|--------------------------|------------------||
|--------------------------|------------------||


 Verse2
            D5   A5             D5
  Gtrs I, III
  H.             H.             H.
  |
  o

  Gtr II
      PM--|          PM--|          PM--|
      |-3-|          |-3-|          |-3-|
  Q   E E E Q    Q   E E E Q    Q   E E E Q
|--------------|--------------|--------------|
|--------------|--------------|--------------|
|--------------|--------------|--------------|
|-7---------7--|--------------|-7---------7--|
|-5---5-5-5-5--|-7---------7--|-5---5-5-5-5--|
|--------------|-5---5-5-5-5--|--------------|


  C5            G5            C5            D5        F5        G5
     PM--|         PM--|         PM--|
     |-3-|         |-3-|         |-3-|
  Q  E E E Q    Q  E E E Q    Q  E E E Q    H.        H.        H.
|-------------|-------------|-------------|---------|---------|-------|
|-------------|-------------|-------------|---------|---------|-------|
|-------------|-------------|-------------|---------|---------|-------|
|-5--------5--|-------------|-5--------5--|-7-------|---------|-------|
|-3--3-3-3-3--|-5--------5--|-3--3-3-3-3--|-5-------|-3-------|-5-----|
|-------------|-3--3-3-3-3--|-------------|---------|-1-------|-3-----|


 Chorus
  D5                             A5           Bb5VI
  Gtr II
  H.           +H.               H.            H.
  |             |                |             |
  /             /                /             /

  Gtrs I, III
                        ~~
                |-3--|                              |--3--|
  Q.   E  Q     E  E E  Q   Q    Q.   E  Q     Q    E  E  E Q
|------------|-----------------|------------|------------------|
|------------|-----------------|------------|------------------|
|-7----9-10--|--9h10p9---------|-7----9-10--|-12---10h12p10-9--|
|------------|---------10------|------------|------------------|
|------------|-------------10--|------------|------------------|
|------------|-----------------|------------|------------------|


  D5  D       D5    A5(typeA2)    A5(typD52)D       D5    C5           C5
      |--3--|               |-3-|           |--3--|            |--3--|
  Q   E E   E  Q    Q       E E E  Q    Q   E E   E  Q     Q   E  E  E Q
  |   | |   |  |    |       | | |  |    |   | |   |  |     |   |  |  | |
  /   o /   /  /    /       o / /  /    /   o /   /  /     /   o  /  / /

                            ~~
                    |-3--|                                     |--3--|
  Q.      E    Q    E  E E  Q      Q    Q.      E    Q     Q   E  E  E Q
|-----------------|-------------------|-----------------|------------------|
|-----------------|-------------------|-----------------|------------------|
|-7-------9---10--|-9h10p9------------|-7-------9---10--|-12--10h12p10-9---|
|-----------------|--------10---------|-----------------|------------------|
|-----------------|---------------10--|-----------------|------------------|
|-----------------|-------------------|-----------------|------------------|


  G5         G5    C5           C5   D5           Bb5(type 2)G5
       |-3-|            |--3--|
   Q   E E E  Q     Q   E  E  E Q    H.           H.         H.
   |   | | |  |     |   |  |  | |    |            |          |
   /   o / /  /     /   o  /  / /    /            /          /

                    ~~
                        |--3--|
   Q   Q      Q     Q   E  E  E Q    Q.   E  Q    H     Q    Q.   E Q
|----------------|-----------------|------------|----------|-----------|
|----------------|-----------------|------------|----------|-----------|
|-10--12-----14--|-12--10h12p10-9--|-7----9-----|----------|-----------|
|----------------|-----------------|--------10--|-8-----7--|-5----7-8--|
|----------------|-----------------|------------|----------|-----------|
|----------------|-----------------|------------|----------|-----------|


 Interlude
  A5
  S S   S   S S S   S   S S S   S   S
  | |   |   | | |   |   | | |   |   |
  / x   x   x x x   x   x x x   x   x

  |---3---|   |---3---|   |---3---|
  E   E   E   E   E   E   E   E   E
|-------------------------------------|
|-------------------------------------|
|-9---9---9---7---7---7---5---5---5---|
|-------------------------------------|
|-------------------------------------|
|-------------------------------------|


  G5                            E5
  S S S S S S   S   S S S S S   S S S S S S S S S S S S
  | | | | | |   |   | | | | |   | | | | | | | | | | | |
  / x x x x x   x   x x x x x   / x x x x x x x x x x x

                      ~~~~~~~~~~~~
          |---3---|
  E   E   E   E   E   Q         Q       E   E   E   E
|-----------------------------|--------------------------|
|-----------------------------|--------------------------|
|-4---5---4h==5p==4-----------|-4-----------4-------4----|
|---------------------5-------|---------7-------7--------|
|-----------------------------|--------------------------|
|-----------------------------|--------------------------|


  A5                            A5
  S S S S S S   S   S S S S S   S S   S   S S S   S   S S S   S   S
  | | | | | |   |   | | | | |   | |   |   | | |   |   | | |   |   |
  / x x x x x   x   x x x x x   / x   x   x x x   x   x x x   x   x

          |---3---|             |---3---|   |---3---|   |---3---|
  E   E   E   E   E   E   E     E   E   E   E   E   E   E   E   E
|-----------------------------|-------------------------------------|
|-----------------------------|-------------------------------------|
|-5---7---5h==7p==5---4---5---|-9---9---9---7---7---7---5---5---5---|
|-----------------------------|-------------------------------------|
|-----------------------------|-------------------------------------|
|-----------------------------|-------------------------------------|


  G5                            E5
  S S S S S S   S   S S S S S   S S S S S S S S S S S   S
  | | | | | |   |   | | | | |   | | | | | | | | | | |   |
  / x x x x x   x   x x x x x   / x x x x x x x x x x   x

                      ~~~~~~~~~~~~
          |---3---|                                 |--3--|
  E   E   E   E   E   Q         Q       E   E   E   S S   S
|-----------------------------|-------------------------------|
|-----------------------------|-------------------------------|
|-4---5---4h==5p==4-----------|-4-----------4---5---7p5p==4---|
|---------------------5-------|---------7---------------------|
|-----------------------------|-------------------------------|
|-----------------------------|-------------------------------|


  A5                           A5
  S  S S S S S S S S S S S     S S S S S S S S S S S S
  |  | | | | | | | | | | |     | | | | | | | | | | | |
  /  x x x x x x x x x x x     / x x x x x x x x x x x

  ~~
  H.                           W
|--------------------------||--------------------------|
|--------------------------||o-------------------------|
|--------------------------||--------------------------|
|-7------------------------||--------------------------|
|--------------------------||o-------------------------|
|--------------------------||--------------------------|


  G5                        E5                        A5
  S S S S S S S S S S S S   S S S S S S S S S S S S   S S S S S S S S S S S S
  | | | | | | | | | | | |   | | | | | | | | | | | |   | | | | | | | | | | | |
  / x x x x x x x x x x x   / x x x x x x x x x x x   / x x x x x x x x x x x

  W                         W                         W
|-------------------------|-------------------------|---------------------------||
|-------------------------|-------------------------|--------------------------o||
|-------------------------|-------------------------|---------------------------||
|-------------------------|-------------------------|---------------------------||
|-------------------------|-------------------------|--------------------------o||
|-------------------------|-------------------------|---------------------------||


                                Guitar Solo2
  A5        G5        E5         A5           E5
  H.        H.        H.          H.           H.
  |         |         |           |            |
  /         /         /           /            /

                                  ~~~~~~~~~~~~~~~~~~
  W         W         W           H.           H.
|---------|---------|---------||------------|----------|
|---------|---------|---------||-15b17------|-15b17----|
|---------|---------|---------||------------|----------|
|---------|---------|---------||------------|----------|
|---------|---------|---------||------------|----------|
|---------|---------|---------||------------|----------|


  D5                         E5                 A5             E5
   H.                         H.                 H.             H.
   |                          |                  |              |
   /                          /                  /              /

                                           ~~
             |--3--|
   E   E  E  S  S  S  E  E    E   E  E  E  Q     Q    Q   Q     Q    Q   Q
|-----12-13-12h13p12----12-|------------------|--------------|-10-------10--|
|-15-----------------15----|-15--13-12-13-----|-13-------13--|-12-------12--|
|--------------------------|------------------|-14-------14--|--------------|
|--------------------------|--------------14--|------14------|------14------|
|--------------------------|------------------|--------------|--------------|
|--------------------------|------------------|--------------|--------------|


  D5                       E5(type 2) G5           G5
   H.                       H.         H.            H.
   |                        |          |             |
   /                        /          /             /

                            ~~~~~~~~~~~~~~~~
          |--3--|
   E   E  S  S  S  E  Q     H.         H.           +Q    Q   Q
|-12--13-12h13p12-10-12--|----------|-15b17------|-(15)--15--13--|
|-13--15-13h15p13-12-13--|-12-------|------------|---------------|
|------------------------|----------|------------|---------------|
|------------------------|----------|------------|---------------|
|------------------------|----------|------------|---------------|
|------------------------|----------|------------|---------------|


                                     Chorus3
  E5                 E5(type 2)       Am
   H.                 H.               H.
   |                  |
   /                  /

   ~~~                ~~~              ~~~
   Q    E  E  E  E    H      E  E      H.
|-12---------------|--------12-10-||--12---------|
|------15-13-12-13-|-12-----13-12-||o-13---------|
|------------------|--------------||-------------|
|------------------|--------------||-------------|
|------------------|--------------||o------------|
|------------------|--------------||-------------|
|
|                                     Gtr II
|  H.                 H.               Q.   E Q
|------------------|--------------||-------------|
|------------------|--------------||o------------|
|------------------|--------------||-------------|
|------------------|--------------||--------2----|
|------------------|--------------||o--0------3--|
|------------------|--------------||-------------|


  Em          Dm          Em
  H.          H.          H.
  H.          H.          H.
|-----------|-----------|------------||
|-----------|-----------|-----------o||
|-----------|-----------|------------||
|-----------|-----------|------------||
|-----------|-----------|-----------o||
|-----------|-----------|------------||
|
| Q.   E Q    Q.   E Q    Q.   E Q
|-----------|-----------|------------||
|-----------|-----------|-----------o||
|------4----|------2----|------4-----||
|-2------5--|-0------3--|-2------5---||
|-----------|-----------|-----------o||
|-----------|-----------|------------||


  F5   G5A5    G5                  A5B5
  Gtr II
                  PM--|
                  |-3-|
  Q.   E E E   Q  E E E E E   Q.   E E E
|------------|--------------|------------|
|------------|--------------|------------|
|------------|--------------|------------|
|------------|--------------|------------|
|-3----5-7---|-5--------5---|-5----7-9---|
|-1----3-5---|-3--3-3-3-3---|-3----5-7---|


  A5             F5        G5        E5        A5
     PM--|
     |-3-|
  Q  E E E E E   H.        H.        H.        H.
|--------------|---------|---------|---------|-------|
|--------------|---------|---------|---------|-------|
|--------------|---------|---------|---------|-------|
|--------------|---------|---------|---------|-2-----|
|-7--------7---|-3-------|-5-------|-2-------|-0-----|
|-5--5-5-5-5---|-1-------|-3-------|-0-------|-------|


  F5      G5A5    G5                          A5B5     A5
  Gtr I
   ~~~~~~~~~~~~~~~~~~                                   ~~~~~
   H.              H         E  E    Q      Q    Q      H.
|-13b15---------|-13--------17-19-|-20b22--20---22---|-22b24------------|
|---------------|-----------------|------------------|------------------|
|---------------|-----------------|------------------|------------------|
|---------------|-----------------|------------------|------------------|
|---------------|-----------------|------------------|------------------|
|---------------|-----------------|------------------|------------------|
|
| Gtr II
|                     PM--|                                   PM--|
|                     |-3-|                                   |-3-|
|  Q.     E E E    Q  E E E  E  E    Q.       E  E E    Q     E E E E E
|---------------|-----------------|------------------|------------------|
|---------------|-----------------|------------------|------------------|
|---------------|-----------------|------------------|------------------|
|---------------|-----------------|------------------|------------------|
|--3------5-7---|--5---------5----|--5--------7--9---|--7-----------7---|
|--1------3-5---|--3--3-3-3--3----|--3--------5--7---|--5-----5-5-5-5---|


    F5                  G5(type 2)
    Gtr II
     H.                  H.
     |                   |
     /                   /

          |--3--|             |--3--|
     Q    E  E  E  Q     Q    E  E  E  Q
||--------------------|-------------------|
||o-17---15h17p15-13--|-15---13h15p13-12--|
||--------------------|-------------------|
||--------------------|-------------------|
||o-------------------|-------------------|
||--------------------|-------------------|


                     1.
  E5(type 2)          A5
   H.                  H.
   |                   |
   /                   /

        |--3--|
   Q    E  E  E  Q     Q      Q   Q
|-------------------|------------------||
|-13---12h13p12-----|-15b17r=13-------o||
|---------------14--|------------14----||
|-------------------|------------------||
|-------------------|-----------------o||
|-------------------|------------------||


  2.
  A5             Am          Em           Em             Em
   H.            H.           H.           H.             H.
   |
   /

                 Gtr IV
   ~~~~~
   H.            Q.   E Q     Q.   E Q     Q.     E Q     Q.     E Q    4x
|-13b15------||------------|------------|--------------|----------------||
|------------||o-----------|------------|--------------|---------------o||
|------------||------------|-------4----|---------2----|---------4------||
|------------||-------2----|--2------5--|--0--------3--|--2--------5----||
|------------||o-0------3--|------------|--------------|---------------o||
|------------||------------|------------|--------------|----------------||
|
|                Gtr V
|  W             H.           H.           Q    Q   Q     Q    Q   Q    4x
|------------||------------|------------|--------------|----------------||
|------------||o-----------|------------|--------------|---------------o||
|------------||------------|--9---------|--7----5---7--|--9-------------||
|------------||--7---------|------------|--------------|-10---10---9----||
|------------||o-----------|------------|--------------|---------------o||
|------------||------------|------------|--------------|----------------||
|
|                Gtr VI
|  W             H.           H.           Q    Q   Q     Q    Q   Q    4x
|------------||--8---------|-12---------|-12---10---8--|--7----8---7----||
|------------||o-----------|------------|--------------|---------------o||
|------------||------------|------------|--------------|----------------||
|------------||------------|------------|--------------|----------------||
|------------||o-----------|------------|--------------|---------------o||
|------------||------------|------------|--------------|----------------||




--------------------------------------------------------------------------------


Duration Legend
---------------
W - whole; H - half; Q - quarter; E - 8th; S - 16th; T - 32nd; X - 64th; a - acciaccatura
+ - note tied to previous; . - note dotted; .. - note double dotted
Uncapitalized letters represent notes that are staccato (1/2 duration)
Irregular groupings are notated above the duration line
Duration letters will always appear directly above the note/fret number it represents the
duration for.  Duration letters with no fret number below them represent rests.  Multi-
bar rests are notated in the form Wxn, where n is the number of bars to rest for.  Low
melody durations appear below the staff

Tablature Legend
----------------
 h   - hammer-on
 p   - pull-off
 b   - bend
 pb  - pre-bend
 r   - bend release (if no number after the r, then release immediately)
 /\  - slide into or out of (from/to "nowhere")
 s   - legato slide
 S   - shift slide
 - natural harmonic
[n]  - artificial harmonic
n(n) - tapped harmonic
 ~   - vibrato
 tr  - trill
 T   - tap
 TP  - trem. picking
 PM  - palm muting
\n/  - tremolo bar dip; n = amount to dip
 \n  - tremolo bar down
 n/  - tremolo bar up
/n\  - tremolo bar inverted dip
 =   - hold bend; also acts as connecting device for hammers/pulls
 <> - volume swell (louder/softer)
 x   - on rhythm slash represents muted slash
 o   - on rhythm slash represents single note slash

Misc Legend
-----------
 |  - bar
||  - double bar
||o - repeat start
o|| - repeat end
*|  - double bar (ending)
 :  - bar (freetime)
 $  - Segno
 &  - Coda
Tempo markers -  = BPM(8/16=s8/s16), where s8 = swing 8ths, s16 = swing 16ths
Добавлено: 04.05.2012
Другие материалы по этой песне:

Страница создана 19.04.2012
http://primanota.ru/blind-guardian/the-bards-song-the-hobbit-chords.htm
Привет, Гость.
Предлагаем пройти революционный курс по гитаре.
Подарок от PrimaNota.Ru, забирай!