PrimaNota.ru - самый крупный в мире бесплатный архив песенных текстов, аккордов, табулатур и нот


Blind Guardian - The Age Of False Innocence - текст песни, таба, бас-таба, видео

Регистрация Запомнить меня
Войти через:  Facebook Google Twitter Vk Yandex Mail.ru

Blind Guardian - The Age Of False Innocence - текст песни, таба, бас-таба, видео

Печатать
Просмотров: 193
Авторы музыки: Hansi Kürsch, André Olbrich
Авторы текста: Hansi Kürsch
As recorded by Blind Guardian
(From the 2002 Album A NIGHT AT THE OPERA)


Transcribed by Fear Fex

 Words by Kürsch Music by Olbrich & Kürsch

 

Gtr I (E A D G B E) - 'Marcus Siepen (Clean)'
Gtr II (E A D G B E) - 'Marcus Siepen'
Gtr III (E A D G B E) - 'Andre Olbrich'
Gtr IV (E A D G B E) - 'Andre Olbrich (and Studio Layers)'
Gtr V (E A D G B E) - 'Pianist'


 Intro
  Q=120
  A5                A5/E  D     C     D5          D5    D
 4/4
  Gtr V
  H    +Q.   S  S    Q.    Q.    Q     W           Q.    Q.   E E
|------------8-10-|-12----10-----8--|-10--------|-10----10--------|
|-5----(5)--------|-----------------|-----------|-------------0-1-|
|-----------------|-----------------|-----------|-----------------|
|-2----(2)--------|-14----12----10--|-12--------|-12----12--------|
|-0----(0)--------|--0--------------|-12--------|-12--------------|
|-----------------|-12----10-----8--|-10--------|-10----10--------|


  A5                A5/E  D     C     D5
  H    +Q.   S  S    Q.    Q.    Q     W
|------------8-10-|-12----10-----8--|-10--------|
|-5----(5)--------|-----------------|-----------|
|-----------------|-----------------|-----------|
|-2----(2)--------|-14----12----10--|-12--------|
|-0----(0)--------|--0--------------|-12--------|
|-----------------|-12----10-----8--|-10--------|


     Bm7/D
   a  S   S    E   E  T  T  E.  E  E E
|-17-19-(17)-(15)-15-------------------|
|--------------------12-13-12--12-10-8-|
|--------------------------------------|
|----12--------------------------------|
|----12--------------------------------|
|----10--------------------------------|


 Verse
  A5/E               A5/E  G5/D  C     D                D5    D
   Q.     Q   E Q     Q.    Q.    Q     H    E  E E E    Q.    Q.   E E
|-12-----10-----8--|-17----15----12--|-10---------7-8-|-10----10--------|
|-------------8----|-----------------|-------8-10-----|-------------0-1-|
|------------------|-----------------|----------------|-----------------|
|-14----(14)-------|-14----12----10--|--0-------------|-12----12--------|
|--0-----(0)-------|-----------------|----------------|-12--------------|
|-12----(12)-------|-12----10-----8--|-10-------------|-10----10--------|


  A              Am/E  Dsus2 C     D5                 D5       D
  H     Q   Q     Q.    Q.    Q     Q.   E  E  Q.      Q.    E  Q  Q
|--------------|-12----12----12--|-10---------------|-10-------10-----|
|--------------|-----------------|------------------|--------------0--|
|-2-----2---4--|--5--------------|------------12----|-----------------|
|--------------|-14----12----10--|-12----0-12-------|-12----10-12-----|
|-0----(0)-----|--0--------------|-12---------------|-12--------------|
|--------------|-12----10-----8--|-10---------------|-10-------10-----|


 Still Verse
  Gtr I
  E Q  E Q  E E   +E  E +H     E E   +E  E H    E E   +E  E Q  Q  Q
|---5----7--8-7-|-(7)-5-(5)------5-|-(5)-3--------3-|-(3)-2----0-----|
|-5----5--------|------------------|-------3--------|-------1-----3--|
|---------------|--------------5---|------------5---|----------------|
|---------------|------------------|----------------|----------------|
|---------------|------------------|----------------|----------------|
|---------------|------------------|----------------|----------------|


  E Q  E Q  E E   +E  E +H     E E   +E  E H    E E   +E  E Q  Q  Q
|---5----7--8-7-|-(7)-5-(5)------5-|-(5)-3--------3-|-(3)-2----0-----|
|-5----5--------|------------------|-------3----1---|-------1-----3--|
|---------------|--------------5---|----------------|----------------|
|---------------|------------------|----------------|----------------|
|---------------|------------------|----------------|----------------|
|---------------|------------------|----------------|----------------|


  E Q  E Q  E E   +E  E +H     E E   +E  E H    E E   +E  E Q  Q  Q
|---5----7--8-7-|-(7)-5-(5)------5-|-(5)-3--------3-|-(3)-2----0-----|
|-5----5--------|------------------|-------3----1---|-------1-----3--|
|---------------|--------------5---|----------------|----------------|
|---------------|------------------|----------------|----------------|
|---------------|------------------|----------------|----------------|
|---------------|------------------|----------------|----------------|


  E Q  E Q  E E   +E  E +H     E E   +E  E H    E E   +E  E Q  Q  Q
|---5----7--8-7-|-(7)-5-(5)------5-|-(5)-3--------3-|-(3)-2----0-----|
|-5----5--------|------------------|-------3----1---|-------1-----3--|
|---------------|--------------5---|----------------|----------------|
|---------------|------------------|----------------|----------------|
|---------------|------------------|----------------|----------------|
|---------------|------------------|----------------|----------------|


 Still Verse
  A5
  Gtr II
  S S S S E S S S S S S S S S S   S S S S E S S S S S S S S S S
|-------------------------------|--------------------------------|
|-------------------------------|--------------------------------|
|-------------------------------|--------------------------------|
|-2-2-2-----2-2-2-2-2---0-------|-2-2-2-----2-2-2-2-2---0--------|
|-0-0-0-----0-0-0-0-0-----3-2-3-|-0-0-0-----0-0-0-0-0-----3-2-3--|
|-------------------------------|--------------------------------|


  S S S S E S S S S S S S S S S   S S S S E S S S S S S S S S S
|-------------------------------|--------------------------------|
|-------------------------------|--------------------------------|
|-------------------------------|--------------------------------|
|-2-2-2-----2-2-2-2-2---0-------|-2-2-2-----2-2-2-2-2---0--------|
|-0-0-0-----0-0-0-0-0-----3-2-3-|-0-0-0-----0-0-0-0-0-----3-2-3--|
|-------------------------------|--------------------------------|


 Still Verse
  A5                    D5       G5
  W                     H        H
|---------------------|-------------------|
|---------------------|-------------------|
|---------------------|-7-----------------|
|-7-------------------|-7--------5--------|
|-7-------------------|-5--------5--------|
|-5-------------------|----------3--------|
|
| Gtr III
| E E S E S  E S E. E   E. E.  E E. E. E
|---------------------|-------------------|
|----------------8----|-------------------|
|---9---9---10------9-|-7--7b9r7-5--7--9--|
|---------------------|-------------------|
|---------------------|-------------------|
|---------------------|-------------------|


  A5                    D5       C5
  W                     H        H
|---------------------|---------------|
|---------------------|---------------|
|---------------------|-7--------5----|
|-7-------------------|-7--------5----|
|-7-------------------|-5--------3----|
|-5-------------------|---------------|
|
|                                ~
| E E S E S  E S E. E   E. E.  E H
|---------------------|---------------|
|----------------8----|---------------|
|---9---9---10------9-|-7--7b9r7-5----|
|---------------------|---------------|
|---------------------|---------------|
|---------------------|---------------|


  A5                    D5       G5
  W                     H        H
|---------------------|-------------------|
|---------------------|-------------------|
|---------------------|-7-----------------|
|-7-------------------|-7--------5--------|
|-7-------------------|-5--------5--------|
|-5-------------------|----------3--------|
|
| E E S E S  E S E. E   E. E.  E E. E. E
|---------------------|-------------------|
|----------------8----|-------------------|
|---9---9---10------9-|-7--7b9r7-5--7--9--|
|---------------------|-------------------|
|---------------------|-------------------|
|---------------------|-------------------|


  A5                    D5       C5
  W                     H        H
|---------------------|---------------|
|---------------------|---------------|
|---------------------|-7--------5----|
|-7-------------------|-7--------5----|
|-7-------------------|-5--------3----|
|-5-------------------|---------------|
|
|                                ~
| E E S E S  E S E. E   E. E.  E H
|---------------------|---------------|
|----------------8----|---------------|
|---9---9---10------9-|-7--7b9r7-5----|
|---------------------|---------------|
|---------------------|---------------|
|---------------------|---------------|


 Still Verse
  A5
  Gtr I
   E    E    S  E    S  E    S  E    S  E      +W
|------12------12------13------15------12---|-(12)-----------------------------|
|-10--------10------10------10------10------|----------------------------------|
|-------------------------------------------|----------------------------------|
|-------------------------------------------|----------------------------------|
|-------------------------------------------|----------------------------------|
|-------------------------------------------|----------------------------------|
|
| Gtr II
|  S S  S S  E    S  S  S S  S  S S  S  S S     S  S S S E S S S S S S S S S S
|-------------------------------------------|----------------------------------|
|-------------------------------------------|----------------------------------|
|-------------------------------------------|----------------------------------|
|--2-2--2---------2--2--2-2--2----0---------|---2--2-2-----2-2-2-2-2---0-------|
|--0-0--0---------0--0--0-0--0-------3--2-3-|---0--0-0-----0-0-0-0-0-----3-2-3-|
|-------------------------------------------|----------------------------------|


   E    E    S  E    S  E    S  E    S  E      +W
|------12------12------13------15------12---|-(12)-----------------------------|
|-10--------10------10------10------10------|----------------------------------|
|-------------------------------------------|----------------------------------|
|-------------------------------------------|----------------------------------|
|-------------------------------------------|----------------------------------|
|-------------------------------------------|----------------------------------|
|
|  S S  S S  E    S  S  S S  S  S S  S  S S     S  S S S E S S S S S S S S S S
|-------------------------------------------|----------------------------------|
|-------------------------------------------|----------------------------------|
|-------------------------------------------|----------------------------------|
|--2-2--2---------2--2--2-2--2----0---------|---2--2-2-----2-2-2-2-2---0-------|
|--0-0--0---------0--0--0-0--0-------3--2-3-|---0--0-0-----0-0-0-0-0-----3-2-3-|
|-------------------------------------------|----------------------------------|


 Chorus
  F5         C5         B5         A5                 F5
  Gtr II
  W          H          H           W                  W
|----------|---------------------|------------------|----------------------|
|----------|---------------------|------------------|----------------------|
|----------|-5----------4--------|------------------|----------------------|
|-3--------|-5----------4--------|--7---------------|--3-------------------|
|-3--------|-3----------2--------|--7---------------|--3-------------------|
|-1--------|---------------------|--5---------------|--1-------------------|
|
| Gtr III
|                                          ~~~~~~~~~            ~~~~~~~~~~
| W          E S  E S E E E E  E    Q   E  Q  Q   E    E  E  E  Q   Q   E
|----------|---------------------|-----12-10--8-----|----------------------|
|----------|-----10---8-7-7-8S12-|-10------------10-|-12----13-12--10--13--|
|----------|---------------------|------------------|----10----------------|
|----------|---------------------|------------------|----------------------|
|----------|---------------------|------------------|----------------------|
|----------|---------------------|------------------|----------------------|


  A5                      F5
   W                       W
|-----------------------|-----------------------|
|-----------------------|-----------------------|
|-----------------------|-----------------------|
|--7--------------------|--3--------------------|
|--7--------------------|--3--------------------|
|--5--------------------|--1--------------------|
|
|           ~~                      ~~
|  E  E  E  Q   E  E  E    E  E  E  Q   E  E  E
|-------12-10-----13-15-|-----------------------|
|-12-10--------13-------|-12----13-12--10-12-13-|
|-----------------------|----10-----------------|
|-----------------------|-----------------------|
|-----------------------|-----------------------|
|-----------------------|-----------------------|


  A5                    F5
   W                     W
|---------------------|---------------------|
|---------------------|---------------------|
|---------------------|---------------------|
|--7------------------|--3------------------|
|--7------------------|--3------------------|
|--5------------------|--1------------------|
|
|           ~~~~~~~~~~            ~~~~~~~~~~
|  E  E  E  Q   Q   E    E  E  E  Q   Q   E
|-------12-10---------|---------------------|
|-12-10--------13--10-|-12----13-12--10--13-|
|---------------------|----10---------------|
|---------------------|---------------------|
|---------------------|---------------------|
|---------------------|---------------------|


  A5                      F5
  Gtr I
   W                       W
|-----------------------|----------------------|
|-----------------------|----------------------|
|-----------------------|----------------------|
|-----------------------|----------------------|
|-----------------------|----------------------|
|-----------------------|----------------------|
|
| Gtr II
|  W                       W
|-----------------------|----------------------|
|-----------------------|----------------------|
|-----------------------|----------------------|
|--7--------------------|--3-------------------|
|--7--------------------|--3-------------------|
|--5--------------------|--1-------------------|
|
| Gtr III
|           ~~                      ~~~
|  E  E  E  Q   E  E  E    E  E  E  Q.    E  E
|-------12-10-----13-15-|----------------------|
|-12-10--------13-------|-12----12-13----15S13-|
|-----------------------|----10----------------|
|-----------------------|----------------------|
|-----------------------|----------------------|
|-----------------------|----------------------|


  G5                     F5
   H     Q          Q          +E   Q.    H
|---------------------------|------------------|
|-----------------!10-------|-(10)-!8----!6----|
|-----------------!12-------|-(12)-!x----!x----|
|---------------------------|------------------|
|---------------------------|------------------|
|---------------------------|------------------|
|
|  H     E     E    E     E    +W
|---------------------------|------------------|
|---------------------------|------------------|
|---------------------------|------------------|
|--5----(5)---(5)--(5)----3-|--(3)-------------|
|--5-----5-----5----5-----3-|--(3)-------------|
|--3-----3-----3----3-----1-|--(1)-------------|
|
|  ~~                     ~~~~~~~~~
|  H     Q          E     E    +H         H
|---------------------------|------------------|
|-12----13b15r=====13b15-13-|-(13)-------!6----|
|---------------------------|------------!x----|
|---------------------------|------------------|
|---------------------------|------------------|
|---------------------------|------------------|


 Verse
  A5
  E Q  E Q  E E   +E  E +H     E E   +E  E H    E E   +E    E Q   Q  Q
|---5----7--8-7-|-(7)-5-(5)------5-|-(5)-3--------3-|-(3)---2-----0-----|
|-5----5--------|------------------|-------3--------|---------1------3--|
|---------------|--------------5---|------------5---|-------------------|
|---------------|------------------|----------------|-------------------|
|---------------|------------------|----------------|-------------------|
|---------------|------------------|----------------|-------------------|
|
| W               +W                 +W               +W
|---------------|------------------|----------------|-------------------|
|---------------|------------------|----------------|-------------------|
|---------------|------------------|----------------|-------------------|
|---------------|------------------|----------------|-------------------|
|-7-------------|-(7)--------------|-(7)------------|-(7)---------------|
|-5-------------|-(5)--------------|-(5)------------|-(5)---------------|
|
| ~~~~~~~~~~~~~~~~~~~~                                 ~~~~~~~~~~~~~
| W               +W                  W                H          H
|---------------|------------------|----------------|-------------------|
|-5-------------|-(5)--------------|----------------|-15b17------15-----|
|---------------|------------------|----------------|-------------------|
|---------------|------------------|----------------|-------------------|
|---------------|------------------|----------------|-------------------|
|---------------|------------------|----------------|-------------------|


   E Q  E Q  E E    +E  E +H       E E   +E  E H    E E    +E  E Q  Q  Q
|----5----7--8-7-|--(7)-5-(5)--------5-|-(5)-3--------3-|--(3)-2----0-----|
|--5----5--------|---------------------|-------3--------|--------1-----3--|
|----------------|-----------------5---|------------5---|-----------------|
|----------------|---------------------|----------------|-----------------|
|----------------|---------------------|----------------|-----------------|
|----------------|---------------------|----------------|-----------------|
|
| Gtr III
|  ~~~~~~~~~~~~~~~~~~~~~~~~~~~~~~~~~~~~~~~~~~~~~~~~~~~~~~~~~~~~
|  W                +H          H         W                +W
|----------------|---------------------|----------------|-----------------|
|-13-------------|-(13)--------15------|-10-------------|-(10)------------|
|----------------|---------------------|----------------|-----------------|
|----------------|---------------------|----------------|-----------------|
|----------------|---------------------|----------------|-----------------|
|----------------|---------------------|----------------|-----------------|


  A5
            ~~~~~~~~~~~~~~~~~~~~~~
  E   E   E Q.           Q    +W
|---------------------------|------------------------------------|
|-----5-----6------------5--|-(5)--------------------------------|
|---------------------------|------------------------------------|
|-7-------7-----------------|------------------------------------|
|---------------------------|------------------------------------|
|---------------------------|------------------------------------|
|
| Gtr II
| S S S S E S  S S S S S Q     S  S S S E  S  S S S S  S Q
|---------------------------|------------------------------------|
|---------------------------|------------------------------------|
|---------------------------|------------------------------------|
|-2-2-2-----2--2-2-2-2------|--2--2-2------2--2-2-2-2------------|
|-0-0-0-----0--0-0-0-0------|--0--0-0------0--0-0-0-0------------|
|---------------------------|------------------------------------|
|
| Gtr III
| W                            Q        E  E.     S E.     S  E
|---------------------------|------------------------------------|
|---------------------------|------------------------------------|
|---------------------------|-------------10--------9--------12S=|
|---------------------------|-------------10--------9--------12S=|
|---------------------------|--------------8--------7--------10S=|
|---------------------------|------------------------------------|


             ~~~~~~~~~~~~~~~~~~~~~~
   E   E   E Q.           Q    +W
|----------------------------|------------------------------------|
|------5-----6------------5--|-(5)--------------------------------|
|----------------------------|------------------------------------|
|--7-------7-----------------|------------------------------------|
|----------------------------|------------------------------------|
|----------------------------|------------------------------------|
|
|  S S S S E S  S S S S S Q     S  S S S E  S  S S S S  S Q
|----------------------------|------------------------------------|
|----------------------------|------------------------------------|
|----------------------------|------------------------------------|
|--2-2-2-----2--2-2-2-2------|--2--2-2------2--2-2-2-2------------|
|--0-0-0-----0--0-0-0-0------|--0--0-0------0--0-0-0-0------------|
|----------------------------|------------------------------------|
|
|  W                            Q        E  E.     S E.     S  E
|----------------------------|------------------------------------|
|----------------------------|------------------------------------|
|-14-------------------------|-------------10--------9--------12S=|
|-14-------------------------|-------------10--------9--------12S=|
|-12-------------------------|--------------8--------7--------10S=|
|----------------------------|------------------------------------|


   E   E   E   E   +Q        Q         +W
|------------------------------------|---------------------------------------|
|------5-------6---(6)-------5-------|-(5)-----------------------------------|
|------------------------------------|---------------------------------------|
|--7-------7-------------------------|---------------------------------------|
|------------------------------------|---------------------------------------|
|------------------------------------|---------------------------------------|
|
|  S S S S S S S S  S  S S S S S S S    S  S S S S S  S  S S S S  S S S  S S
|------------------------------------|---------------------------------------|
|------------------------------------|---------------------------------------|
|------------------------------------|---------------------------------------|
|--2-2-2-2-2-2-2-2--2--2-2-2-2-2-2-2-|--2--2-2-2-2-2--2--2-2-2-2--2-2-2--2-2-|
|--0-0-0-0-0-0-0-0--0--0-0-0-0-0-0-0-|--0--0-0-0-0-0--0--0-0-0-0--0-0-0--0-0-|
|------------------------------------|---------------------------------------|
|
|  W                                    Q        E    E.     S E.     S  E
|------------------------------------|---------------------------------------|
|------------------------------------|---------------------------------------|
|-14---------------------------------|---------------10--------9--------12S==|
|-14---------------------------------|---------------10--------9--------12S==|
|-12---------------------------------|----------------8--------7--------10S==|
|------------------------------------|---------------------------------------|


   E   E   E   E   +Q        Q         +W
|------------------------------------|---------------------------------------|
|------5-------6---(6)-------5-------|-(5)-----------------------------------|
|------------------------------------|---------------------------------------|
|--7-------7-------------------------|---------------------------------------|
|------------------------------------|---------------------------------------|
|------------------------------------|---------------------------------------|
|
|  S S S S S S S S  S  S S S S S S S    S  S S S S S  S  S S S  S  S S S S S
|------------------------------------|---------------------------------------|
|------------------------------------|---------------------------------------|
|------------------------------------|---------------------------------------|
|--2-2-2-2-2-2-2-2--2--2-2-2-2-2-2-2-|--2--2-2-2-2-2--2--2-2-2--2--2-2-2-2-2-|
|--0-0-0-0-0-0-0-0--0--0-0-0-0-0-0-0-|--0--0-0-0-0-0--0--0-0-0--0--0-0-0-0-0-|
|------------------------------------|---------------------------------------|
|
|  W                                    Q        E    E.     S  E.     S E
|------------------------------------|---------------------------------------|
|------------------------------------|---------------------------------------|
|-14---------------------------------|---------------12--------10--------9---|
|-14---------------------------------|---------------12--------10--------9---|
|-12---------------------------------|---------------10---------8--------7---|
|------------------------------------|---------------------------------------|


 Still Verse
  E   E   E   E   E   S T T E E   +H                Q       Q
|-------------------------------|-------------------------------|
|---------5---7---8---7h8p7-----|-------------------8-------6---|
|-----4---------------------7---|-------------------------------|
|-----------------------------7-|-(7)---------------------------|
|-------------------------------|-------------------------------|
|-------------------------------|-------------------------------|
|
| S S S S S S S S S S S S   E E    S  S S S S S S S S S S S E E
|-------------------------------|-------------------------------|
|-------------------------------|-------------------------------|
|-------------------------------|-------------------------------|
|-------------------------------|-------------------------------|
|-------------------------------|-------------------------------|
|-5-5-5-5-5---5-5---5-5-----6-3-|--5--5---5-5---5-5---5-5---6-3-|


  Q       E   E   E   S T T E E   +E    E   E   E    E   S  T T  E E
|-------------------------------|-------------------------------------|
|-5-------5---7---8---7h8p7-----|-------5---7---8---10---8h10p8-------|
|---------------------------7-5-|-(5)---------------------------10-9--|
|-------------------------------|-------------------------------------|
|-------------------------------|-------------------------------------|
|-------------------------------|-------------------------------------|
|
| S S S S S S S S S S S S   E E    S  S S S S S S S  S S S  S    E E
|-------------------------------|-------------------------------------|
|-------------------------------|-------------------------------------|
|-------------------------------|-------------------------------------|
|-------------------------------|-------------------------------------|
|-------------------------------|-------------------------------------|
|-5-5---5-5---5-5---5-5-----6-3-|--5--5---5-5---5-5--5-5-5-------6-3--|


  E   E   E   E   E   S T T E E   +H                Q       Q
|-------------------------------|-------------------------------|
|---------5---7---8---7h8p7-----|-------------------8-------6---|
|-----4---------------------7---|-------------------------------|
|-----------------------------7-|-(7)---------------------------|
|-------------------------------|-------------------------------|
|-------------------------------|-------------------------------|
|
| S S S S S S S S S S S S   E E    S  S S S S S S S S S S S E E
|-------------------------------|-------------------------------|
|-------------------------------|-------------------------------|
|-------------------------------|-------------------------------|
|-------------------------------|-------------------------------|
|-------------------------------|-------------------------------|
|-5-5---5-5---5-5---5-5-----6-3-|--5--5---5-5---5-5-5-5-5---6-3-|


  Q       E   E   E   S T T E E   +E    E   E   E    E   S  T T  E E
|-------------------------------|-------------------------------------|
|-5-------5---7---8---7h8p7-----|-------5---7---8---10---8h10p8-------|
|---------------------------7-5-|-(5)---------------------------10-9--|
|-------------------------------|-------------------------------------|
|-------------------------------|-------------------------------------|
|-------------------------------|-------------------------------------|
|
| S S S S S S S S S S S S   E E    S  S S S S S S S  S S S  S    E E
|-------------------------------|-------------------------------------|
|-------------------------------|-------------------------------------|
|-------------------------------|-------------------------------------|
|-------------------------------|-------------------------------------|
|-------------------------------|-------------------------------------|
|-5-5---5-5---5-5---5-5-----6-3-|--5--5---5-5---5-5--5-5-5-------6-3--|


 Still Verse
  D5                         C5              D5
  +W                         W               W
|--------------------------|---------------|-----------------------|
|--------------------------|---------------|-----------------------|
|-(9)----------------------|---------------|-----------------------|
|--------------------------|---------------|-----------------------|
|--------------------------|---------------|-----------------------|
|--------------------------|---------------|-----------------------|
|
|  Q      S  S S S Q.    E   W               Q     S S S S Q.    E
|--------------------------|---------------|-----------------------|
|--------------------------|---------------|-----------------------|
|--7---------------7-------|-5-------------|-7-------------7-------|
|--7---------------7-----x-|-5-------------|-7-------------7-----0-|
|--5------5--5-5-5-5-----x-|-3-------------|-5-----5-5-5-5-5-----0-|
|--------------------------|---------------|-----------------------|
|
| Gtr III
|                            ~~
|  E.  S +Q        E. E. E   Q.   E +H       E.  Q       S E. E. E
|--------------------------|---------------|-----------------------|
|------5-(5)-------6--8--6-|-5----6-(6)----|-----5-------x-6--8--6-|
|--5b7---------------------|---------------|-5b7-------------------|
|--------------------------|---------------|-----------------------|
|--------------------------|---------------|-----------------------|
|--------------------------|---------------|-----------------------|


  Bb5  C5         D5                        C5
  Gtr II
  Q.   E +H       Q      S  S S S Q.    E   W
|---------------|-------------------------|---------------|
|---------------|-------------------------|---------------|
|-3----5-(5)----|-7---------------7-------|-5-------------|
|-3----5-(5)----|-7---------------7-----x-|-5-------------|
|-1----3-(3)----|-5------5--5-5-5-5-----x-|-3-------------|
|---------------|-------------------------|---------------|
|
| Gtr III
| ~~~~~~~~~~~
| Q.   E +H       E.  S +Q        E. E. E   Q.   E +H
|---------------|-------------------------|---------------|
|-5----6-(6)----|-----5-(5)-------6--8--6-|-5----6-(6)----|
|-3----5-(5)----|-5b7---------------------|---------------|
|-3----5-(5)----|-------------------------|---------------|
|-1----3-(3)----|-------------------------|---------------|
|---------------|-------------------------|---------------|


  D5                      Bb5  C5
  Gtr I
  W                       W
|-----------------------|---------------|
|-----------------------|---------------|
|-----------------------|---------------|
|-----------------------|---------------|
|-----------------------|---------------|
|-----------------------|---------------|
|
| Gtr II
| Q     S S S S Q.    E   Q.   E +H
|-----------------------|---------------|
|-----------------------|---------------|
|-7-------------7-------|-3----5-(5)----|
|-7-------------7-----x-|-3----5-(5)----|
|-5-----5-5-5-5-5-----x-|-1----3-(3)----|
|-----------------------|---------------|
|
| Gtr III
|                         ~~~~~~~~~~~
| E.  Q       S E. E. E   Q.   E +H
|-----------------------|---------------|
|-----5-------x-6--8--6-|-5----6-(6)----|
|-5b7-------------------|-3----5-(5)----|
|-----------------------|-3----5-(5)----|
|-----------------------|-1----3-(3)----|
|-----------------------|---------------|


  Bb5                 Bb5
             ~~~                 ~~~~~~
  E  E.  E.  H        E  E.  E.  Q   Q
|-------------------|---------------------|
|----3---5---6------|----3---5---6---5----|
|-------------------|---------------------|
|-------------------|---------------------|
|-------------------|---------------------|
|-------------------|---------------------|
|
| W                   W
|-------------------|---------------------|
|-------------------|---------------------|
|-3-----------------|-3-------------------|
|-3-----------------|-3-------------------|
|-1-----------------|-1-------------------|
|-------------------|---------------------|
|
|            ~~~                 ~~~~~~
| E  E.  E.  H        E  E.  E.  Q   Q
|-------------------|---------------------|
|---(3)-(5)-(6)-----|---(3)-(5)-(6)--5----|
|-------------------|---------------------|
|-------------------|---------------------|
|-------------------|---------------------|
|-------------------|---------------------|


 Chorus
  A5                  F5
  +W                   W
|-------------------|---------------------|
|-(5)---------------|---------------------|
|-------------------|---------------------|
|-------------------|---------------------|
|-------------------|---------------------|
|-------------------|---------------------|
|
|  W                   W
|-------------------|---------------------|
|-------------------|---------------------|
|-------------------|---------------------|
|--7----------------|--3------------------|
|--7----------------|--3------------------|
|--5----------------|--1------------------|
|
|          ~~~~~~~~~            ~~~~~~~~~~
|  Q    E  Q  Q   E    E  E  E  Q   Q   E
|------12-10--8-----|---------------------|
|-10-------------10-|-12----13-12--10--13-|
|-------------------|----10---------------|
|-------------------|---------------------|
|-------------------|---------------------|
|-------------------|---------------------|


  A5                      F5
   W                       W
|-----------------------|-----------------------|
|-----------------------|-----------------------|
|-----------------------|-----------------------|
|-----------------------|-----------------------|
|-----------------------|-----------------------|
|-----------------------|-----------------------|
|
|  W                       W
|-----------------------|-----------------------|
|-----------------------|-----------------------|
|-----------------------|-----------------------|
|--7--------------------|--3--------------------|
|--7--------------------|--3--------------------|
|--5--------------------|--1--------------------|
|
|           ~~                      ~~
|  E  E  E  Q   E  E  E    E  E  E  Q   E  E  E
|-------12-10-----13-15-|-----------------------|
|-12-10--------13-------|-12----13-12--10-12-13-|
|-----------------------|----10-----------------|
|-----------------------|-----------------------|
|-----------------------|-----------------------|
|-----------------------|-----------------------|


  A5                   F5
  Gtr II
   W                    W
|--------------------|---------------------|
|--------------------|---------------------|
|--------------------|---------------------|
|--7-----------------|--3------------------|
|--7-----------------|--3------------------|
|--5-----------------|--1------------------|
|
| Gtr III
|           ~~~~~~~~~            ~~~~~~~~~~
|  E  E  E  Q  Q   E    E  E  E  Q   Q   E
|-------12-10--8-----|---------------------|
|-12-10-----------10-|-12----13-12--10--13-|
|--------------------|----10---------------|
|--------------------|---------------------|
|--------------------|---------------------|
|--------------------|---------------------|


  A5                      F5
   W                       W
|-----------------------|----------------------|
|-----------------------|----------------------|
|-----------------------|----------------------|
|--7--------------------|--3-------------------|
|--7--------------------|--3-------------------|
|--5--------------------|--1-------------------|
|
|           ~~                      ~~~
|  E  E  E  Q   E  E  E    E  E  E  Q.    E  E
|-------12-10-----13-15-|----------------------|
|-12-10--------13-------|-12----12-13----15-13-|
|-----------------------|----10----------------|
|-----------------------|----------------------|
|-----------------------|----------------------|
|-----------------------|----------------------|


 Guitar Solo
  D5     C5 D5                  D5     C5 D5
  E.   S  S E.    +H            E.   S  S E.    +H
|-----------------------------|---------------------------------|
|-----------------------------|---------------------------------|
|-----------------------------|---------------------------------|
|-7----x--5S7-----(7)---------|-7----x--5S7-----(7)-------------|
|-5----x--3S5-----(5)---------|-5----x--3S5-----(5)-------------|
|-----------------------------|---------------------------------|
|
| Q       S S   E  Q    S S E   Q       S S   E  Q      S  S  E
|-----------------------------|---------------------------------|
|-8b10---10-8--10--6b8--8-6-8-|-8b10---10-9--10--9b11--11-10-11-|
|-----------------------------|---------------------------------|
|-----------------------------|---------------------------------|
|-----------------------------|---------------------------------|
|-----------------------------|---------------------------------|
|
| Gtr IV
| W                             W
|-----------------------------|---------------------------------|
|-----------------------------|---------------------------------|
|-----------------------------|---------------------------------|
|-----------------------------|---------------------------------|
|-----------------------------|---------------------------------|
|-----------------------------|---------------------------------|


  D5           C5 D5
   E.        S  S  E.       +H
|-----------------------------------------------------|
|-----------------------------------------------------|
|-----------------------------------------------------|
|--7---------x--5S=7--------(7)-----------------------|
|--5---------x--3S=5--------(5)-----------------------|
|-----------------------------------------------------|
|
|  S   S  S  S  S  S   S  S  S   S  S  S  S  S  S  S
|-------------------------------------------------15--|
|--------------15-13-----13-15--13-15-17-18-17-18-----|
|-15--14-15-17--------15------------------------------|
|-----------------------------------------------------|
|-----------------------------------------------------|
|-----------------------------------------------------|
|
|  S   S  S  S  S  S   S  S  S   S  S  S  S  S  S  S
|-------------------------------------------------15--|
|--------------15-13-----13-15--13-15-17-18-17-18-----|
|-15--14-15-17--------15------------------------------|
|-----------------------------------------------------|
|-----------------------------------------------------|
|-----------------------------------------------------|


  D5           C5 D5
   E.        S  S  E.       +H
|----------------------------------------------------|
|----------------------------------------------------|
|----------------------------------------------------|
|--7---------x--5S=7--------(7)----------------------|
|--5---------x--3S=5--------(5)----------------------|
|----------------------------------------------------|
|
|  S   S  S  S  S  S   S  S  S   S  S  S  S  S  S  S
|-17--15----15-18-17--15-17-20--18-17-18-22-20-22-24-|
|--------18------------------------------------------|
|----------------------------------------------------|
|----------------------------------------------------|
|----------------------------------------------------|
|----------------------------------------------------|
|
|  S   S  S  S  S  S   S  S  S   S  S  S  S  S  S  S
|-17--15----15-18-17--15-17-20--18-17-18-22-20-22-24-|
|--------18------------------------------------------|
|----------------------------------------------------|
|----------------------------------------------------|
|----------------------------------------------------|
|----------------------------------------------------|


  D5         Bb5           G5                    Bb5          C5
   Q       E  Q.         E  E       +E   S S S S  Q       S S  E  S S
|--------------------------------|-------------------------------------|
|--------------------------------|-------------------------------------|
|--------------------------------|-------------------------------------|
|--7-------x--3----------x-------|----------------3------------5-------|
|--5-------x--1----------x--5----|--(5)-----------1-------1-1--3--3-3--|
|---------------------------3----|--(3)--3-3-3-3-----------------------|
|
|                                                                 ~~
|  E     E E  E   Q      E  E       +E   E   E    E  Q         E  E
|--------------------------------|-------------------------------------|
|-13b15-15---15--15b17r=15-18b20-|-(18)-18-------17-17b19-----17-15----|
|--------------------------------|-------------------------------------|
|--------------------------------|-------------------------------------|
|--------------------------------|-------------------------------------|
|--------------------------------|-------------------------------------|
|
|  ~~~~~~~~~~~~~~~~~~~~~~~~~~~~~~~~~~~~~
|  W                                +W
|-22-----------------------------|-(22)--------------------------------|
|--------------------------------|-------------------------------------|
|--------------------------------|-------------------------------------|
|--------------------------------|-------------------------------------|
|--------------------------------|-------------------------------------|
|--------------------------------|-------------------------------------|


  D5        Bb5             C5                    G5
    Q     E  Q.         S S  E    +E   S    S S S  Q   S S  S S S S
|------------------------------|------------------------------------|
|------------------------------|------------------------------------|
|------------------------------|------------------------------------|
|---7-----x--3---------------5-|--(5)-------------------------------|
|---5-----x--1----------1-1--3-|--(3)--3----3-3-3--5----------------|
|------------------------------|-------------------3---3-3--3-3-3-3-|
|
|                                                  ~~~
|  +E   E E  E   Q      E    E    +E   E      E    Q.       Q
|---------------------------15-|-(15)-15b17-------15----------------|
|-(15)-15---15--15b17--15------|---------------------------18-------|
|------------------------------|------------------------------------|
|------------------------------|------------------------------------|
|------------------------------|------------------------------------|
|------------------------------|------------------------------------|


  D5         Bb5           G5
   Q       E  Q.         E  E
|--------------------------------|
|--------------------------------|
|--------------------------------|
|--7-------x--3----------x-------|
|--5-------x--1----------x--5----|
|---------------------------3----|
|
|  E     E E  E   Q      E  E
|--------------------------------|
|-13b15-15---15--15b17r=15-18b20-|
|--------------------------------|
|--------------------------------|
|--------------------------------|
|--------------------------------|


                Bb5          C5
   +E   S S S S  Q       S S  E  S S
|------------------------------------|
|------------------------------------|
|------------------------------------|
|----------------3------------5------|
|--(5)-----------1-------1-1--3--3-3-|
|--(3)--3-3-3-3----------------------|
|
|  +E   E   E    E  Q         E  E
|------------------------------------|
|-(18)-18-------17-17b18-----17-15---|
|------------------------------------|
|------------------------------------|
|------------------------------------|
|------------------------------------|


  D5        Bb5             C5                    G5
    Q     E  Q.         S S  E    +E   S    S S S  Q   S S  S S S S
|------------------------------|-------------------------------------|
|------------------------------|-------------------------------------|
|------------------------------|-------------------------------------|
|---7-----x--3---------------5-|--(5)--------------------------------|
|---5-----x--1----------1-1--3-|--(3)--3----3-3-3--5-----------------|
|------------------------------|-------------------3---3-3--3-3-3-3--|
|
|                            ~~~~~~~~~             ~~~
|  +E   E E  E   Q      E    E    +E   E      E    Q.       Q
|---------------------------15-|-(15)-15b17-------15-------13--------|
|-(15)-15---15--15b17r=15------|-------------------------------------|
|------------------------------|-------------------------------------|
|------------------------------|-------------------------------------|
|------------------------------|-------------------------------------|
|------------------------------|-------------------------------------|


  A5
   W
|-------------------------------------|
|-------------------------------------|
|--2----------------------------------|
|--2----------------------------------|
|--0----------------------------------|
|-------------------------------------|
|
|  E  S  S  S  E  S  S  S  S  E  S  E
|-------------12-------------------10-|
|-10-13-12-10----10-13-12-10-13-13----|
|-------------------------------------|
|-------------------------------------|
|-------------------------------------|
|-------------------------------------|


  D5                G5
   H                 H
|--------------------------------------------|
|--------------------------------------------|
|--7-----------------------------------------|
|--7-----------------5-----------------------|
|--5-----------------5-----------------------|
|--------------------3-----------------------|
|
|                                   |--3--|
|  E  S  S  S  E  S  S  S  S  E  S  S  S  S
|-------------12-----------------------------|
|-10-13-12-10----10-13-12-10-13-13-12h13p12--|
|--------------------------------------------|
|--------------------------------------------|
|--------------------------------------------|
|--------------------------------------------|


  A5
   W
|-------------------------------------|
|-------------------------------------|
|--2----------------------------------|
|--2----------------------------------|
|--0----------------------------------|
|-------------------------------------|
|
|  E  S  S  S  E  S  S  S  S  E  S  E
|-------------12-------------------10-|
|-10-13-12-10----10-13-12-10-13-13----|
|-------------------------------------|
|-------------------------------------|
|-------------------------------------|
|-------------------------------------|


  D5                G5
   H                 H
|--------------------------------------------|
|--------------------------------------------|
|--7-----------------------------------------|
|--7-----------------5-----------------------|
|--5-----------------5-----------------------|
|--------------------3-----------------------|
|
|                                   |--3--|
|  E  S  S  S  E  S  S  S  S  E  S  S  S  S
|-------------12-----------------------------|
|-10-13-12-10----10-13-12-10-13-13-12h13p12--|
|--------------------------------------------|
|--------------------------------------------|
|--------------------------------------------|
|--------------------------------------------|


  A5
   W
|------------------------------|
|------------------------------|
|--2---------------------------|
|--2---------------------------|
|--0---------------------------|
|------------------------------|
|
|  E     E S  E S  E S  E S  E
|-------12-x-15-x-12-----------|
|--------------------x-15-x-13-|
|-14---------------------------|
|------------------------------|
|------------------------------|
|------------------------------|
|
| Gtr IV
|  W
|------------------------------|
|-11b13------------------------|
|------------------------------|
|------------------------------|
|------------------------------|
|------------------------------|


  F5                 C5                 A5
   H                  H                  W
|-------------------------------------|---------------------------|
|-------------------------------------|---------------------------|
|-10------------------5---------------|--2------------------------|
|-10------------------5---------------|--2------------------------|
|--8------------------3---------------|--0------------------------|
|-------------------------------------|---------------------------|
|
|  E  E    S  E    S  E S  E     S  E    E  E S  E S  E S  E S  E
|----12----x-15----x-12---------------|----12-x-15-x-12-----------|
|-----------------------x-15-----x-13-|-----------------x-15-x-13-|
|-14----------------------------------|-14------------------------|
|-------------------------------------|---------------------------|
|-------------------------------------|---------------------------|
|-------------------------------------|---------------------------|
|
|                                        ~~
|  E  E    S  E.      Q       S  S  E    W
|-------------------------------------|---------------------------|
|----12b13---12b13---12------12h13p12-|-10------------------------|
|-------------------------------------|---------------------------|
|-------------------------------------|---------------------------|
|-------------------------------------|---------------------------|
|-------------------------------------|---------------------------|


  F5                 C5                A5
   H                  H                 W
|------------------------------------|------------------------------|
|------------------------------------|------------------------------|
|-10------------------5--------------|--2---------------------------|
|-10------------------5--------------|--2---------------------------|
|--8------------------3--------------|--0---------------------------|
|------------------------------------|------------------------------|
|
|  E  E    S  E    S  E S  E    S  E    E     E S  E S  E S  E S  E
|----12----x-15----x-12--------------|-------12-x-15-x-12-----------|
|-----------------------x-15----x-13-|--------------------x-15-x-13-|
|-14---------------------------------|-14---------------------------|
|------------------------------------|------------------------------|
|------------------------------------|------------------------------|
|------------------------------------|------------------------------|
|
|  E  E    S  E.      Q       E    E    W
|------------------------------------|------------------------------|
|----12b13---12b13---12------13---15-|-15b17------------------------|
|------------------------------------|------------------------------|
|------------------------------------|------------------------------|
|------------------------------------|------------------------------|
|------------------------------------|------------------------------|


  F5                 C5
   H                  H
|----------------------------------------|
|----------------------------------------|
|-10------------------5------------------|
|-10------------------5------------------|
|--8------------------3------------------|
|----------------------------------------|
|
|  E  E    S  E    S  E S  E       S  E
|----12----x-15----x-12------------------|
|-----------------------x-15-------x-13--|
|-14-------------------------------------|
|----------------------------------------|
|----------------------------------------|
|----------------------------------------|
|
|  E  E    S  E.      Q       Q
|----------------------------------------|
|----15b17---15b17---15------15b17r======|
|----------------------------------------|
|----------------------------------------|
|----------------------------------------|
|----------------------------------------|


  A5
   W
|---------------------------|
|---------------------------|
|--2------------------------|
|--2------------------------|
|--0------------------------|
|---------------------------|
|
|  E  E S  E S  E S  E S  E
|----12-x-15-x-12-----------|
|-----------------x-15-x-13-|
|-14------------------------|
|---------------------------|
|---------------------------|
|---------------------------|
|
|  ~~
|  W
|---------------------------|
|-13------------------------|
|---------------------------|
|---------------------------|
|---------------------------|
|---------------------------|


  F5                 C5                A5
   H                  H                 W
|------------------------------------|-------------------------|
|------------------------------------|-------------------------|
|-10------------------5--------------|--2----------------------|
|-10------------------5--------------|--2----------------------|
|--8------------------3--------------|--0----------------------|
|------------------------------------|-------------------------|
|
|  E  E    S  E    S  E S  E    S  E    E    E S E S  E S E. E
|----12----x-15----x-12--------------|-------------------------|
|-----------------------x-15----x-13-|--------------------8----|
|-14---------------------------------|-------9---9---10------9-|
|------------------------------------|-------------------------|
|------------------------------------|-------------------------|
|------------------------------------|-------------------------|
|
|  E  E    S  E.      Q       E    E    W
|---------------------------------15-|-15b17-------------------|
|----15b17---15b17---15------17------|-------------------------|
|------------------------------------|-------------------------|
|------------------------------------|-------------------------|
|------------------------------------|-------------------------|
|------------------------------------|-------------------------|


 Verse
  D5       G5         A5
  H        H          W
|-------------------|---------------------|
|-------------------|---------------------|
|-7-----------------|-2-------------------|
|-7--------5--------|-2-------------------|
|-5--------5--------|-0-------------------|
|----------3--------|---------------------|
|
| E. E.  E E. E. E    E E S E S  E S E. E
|-------------------|---------------------|
|-------------------|----------------8----|
|-7--7b9r7-5--7--9--|---9---9---10------9-|
|-------------------|---------------------|
|-------------------|---------------------|
|-------------------|---------------------|


  D5       C5     A5
  H        H      W
|---------------|---------------------|
|---------------|---------------------|
|-7--------5----|-2-------------------|
|-7--------5----|-2-------------------|
|-5--------3----|-0-------------------|
|---------------|---------------------|
|
|          ~
| E. E.  E H      E E S E S  E S E. E
|---------------|---------------------|
|---------------|----------------8----|
|-7--7b9r7-5----|---9---9---10------9-|
|---------------|---------------------|
|---------------|---------------------|
|---------------|---------------------|


  D5       G5         A5
  H        H          W
|-------------------|---------------------|
|-------------------|---------------------|
|-7-----------------|-2-------------------|
|-7--------5--------|-2-------------------|
|-5--------5--------|-0-------------------|
|----------3--------|---------------------|
|
| E. E.  E E. E. E    E E S E S  E S E. E
|-------------------|---------------------|
|-------------------|----------------8----|
|-7--7b9r7-5--7--9--|---9---9---10------9-|
|-------------------|---------------------|
|-------------------|---------------------|
|-------------------|---------------------|


                 Still Verse
  D5       C5     D5
  H        H      Q     S S S  S  Q.    E
|---------------|-------------------------|
|---------------|-------------------------|
|-7--------5----|-7---------------7-------|
|-7--------5----|-7---------------7-----x-|
|-5--------3----|-5-----5-5-5--5--5-----x-|
|---------------|-------------------------|
|
|          ~
| E. E.  E H      E.  Q       +S  E. E. E
|---------------|-------------------------|
|---------------|-----5-------(5)-6--8--6-|
|-7--7b9r7-5----|-5b7---------------------|
|---------------|-------------------------|
|---------------|-------------------------|
|---------------|-------------------------|


  C5              D5                      Bb5  C5
  W               Q     S S S S Q.    E   Q.   E +H
|---------------|-----------------------|---------------|
|---------------|-----------------------|---------------|
|-5-------------|-7-------------7-------|-3----5-(5)----|
|-5-------------|-7-------------7-----0-|-3----5-(5)----|
|-3-------------|-5-----5-5-5-5-5-----0-|-1----3-(3)----|
|---------------|-----------------------|---------------|
|
| ~~~~~~~~~~~                             ~~~~~~~~~~~
| Q.   E +H       E.  Q       S E. E. E   Q.   E +H
|---------------|-----------------------|---------------|
|-5----6-(6)----|-----5-------x-6--8--6-|-5----6-(6)----|
|---------------|-5b7-------------------|------5-(5)----|
|---------------|-----------------------|-8----5-(5)----|
|---------------|-----------------------|-8----3-(3)----|
|---------------|-----------------------|-6-------------|


  D5                        C5              D5
  Q     S S S  S  Q.    E   W               Q     S S S S Q.    E
|-------------------------|---------------|-----------------------|
|-------------------------|---------------|-----------------------|
|-7---------------7-------|-5-------------|-7-------------7-------|
|-7---------------7-----0-|-5-------------|-7-------------7-----0-|
|-5-----5-5-5--5--5-----0-|-3-------------|-5-----5-5-5-5-5-----0-|
|-------------------------|---------------|-----------------------|
|
|                           ~~~~~~~~~~~
| E.  Q       +S  E. E. E   Q.   E +H       E.  Q       S E. E. E
|-------------------------|---------------|-----------------------|
|-----5-------(5)-6--8--6-|-5----6-(6)----|-----5-------x-6--8--6-|
|-5b7---------------------|---------------|-5b7-------------------|
|-------------------------|---------------|-----------------------|
|-------------------------|---------------|-----------------------|
|-------------------------|---------------|-----------------------|


                 Chorus
  Bb5  C5         A5
  Q.   E +H        W
|---------------|-------------------|
|---------------|-------------------|
|-3----5-(5)----|-------------------|
|-3----5-(5)----|--7----------------|
|-1----3-(3)----|--7----------------|
|---------------|--5----------------|
|
| ~~~~~~~~~~~             ~~~~~~~~~~
| Q.   E +H        Q   E  Q   Q   E
|---------------|-----12-10---------|
|-5----6-(6)----|-10---------13--10-|
|------5-(5)----|-------------------|
|-8----5-(5)----|-------------------|
|-8----3-(3)----|-------------------|
|-6-------------|-------------------|


  F5                    A5
   W                     W
|---------------------|-----------------------|
|---------------------|-----------------------|
|---------------------|-----------------------|
|--3------------------|--7--------------------|
|--3------------------|--7--------------------|
|--1------------------|--5--------------------|
|
|           ~~~~~~~~~~            ~~
|  E  E  E  Q   Q   E    E  E  E  Q   E  E  E
|---------------------|-------12-10-----13-15-|
|-12----13-12--10--13-|-12-10--------13-------|
|----10---------------|-----------------------|
|---------------------|-----------------------|
|---------------------|-----------------------|
|---------------------|-----------------------|


  F5                      A5
   W                       W
|-----------------------|-------------------|
|-----------------------|-------------------|
|-----------------------|-------------------|
|--3--------------------|--7----------------|
|--3--------------------|--7----------------|
|--1--------------------|--5----------------|
|
|           ~~                    ~~~~~~~~~~
|  E  E  E  Q   E  E  E    Q   E  Q   Q   E
|-----------------------|-----12-10---------|
|-12----13-12--10-12-13-|-10---------13--10-|
|----10-----------------|-------------------|
|-----------------------|-------------------|
|-----------------------|-------------------|
|-----------------------|-------------------|


  F5                    A5
   W                     W
|---------------------|-----------------------|
|---------------------|-----------------------|
|---------------------|-----------------------|
|--3------------------|--7--------------------|
|--3------------------|--7--------------------|
|--1------------------|--5--------------------|
|
|           ~~~~~~~~~~            ~~
|  E  E  E  Q   Q   E    E  E  E  Q   E  E  E
|---------------------|-------12-10-----13-15-|
|-12----13-12--10--13-|-12-10--------13-------|
|----10---------------|-----------------------|
|---------------------|-----------------------|
|---------------------|-----------------------|
|---------------------|-----------------------|


  F5                     A5
   W                      W
|----------------------|-------------------|
|----------------------|-------------------|
|----------------------|-------------------|
|--3-------------------|--7----------------|
|--3-------------------|--7----------------|
|--1-------------------|--5----------------|
|
|           ~~~                  ~~~~~~~~~~
|  E  E  E  Q.    E  E    Q   E  Q   Q   E
|----------------------|-----12-10---------|
|-12----13-12----15S13-|-10---------13--10-|
|----10----------------|-------------------|
|----------------------|-------------------|
|----------------------|-------------------|
|----------------------|-------------------|


  F5                    A5
   W                     W
|---------------------|-----------------------|
|---------------------|-----------------------|
|---------------------|-----------------------|
|--3------------------|--7--------------------|
|--3------------------|--7--------------------|
|--1------------------|--5--------------------|
|
|           ~~~~~~~~~~            ~~
|  E  E  E  Q   Q   E    E  E  E  Q   E  E  E
|---------------------|-------12-10-----13-15-|
|-12----13-12--10--13-|-12-10--------13-------|
|----10---------------|-----------------------|
|---------------------|-----------------------|
|---------------------|-----------------------|
|---------------------|-----------------------|


  F5                      A5
   W                       W
|-----------------------|-------------------|
|-----------------------|-------------------|
|-----------------------|-------------------|
|--3--------------------|--7----------------|
|--3--------------------|--7----------------|
|--1--------------------|--5----------------|
|
|           ~~                    ~~~~~~~~~~
|  E  E  E  Q   E  E  E    Q   E  Q   Q   E
|-----------------------|-----12-10---------|
|-12----13-12--10-12-13-|-10---------13--10-|
|----10-----------------|-------------------|
|-----------------------|-------------------|
|-----------------------|-------------------|
|-----------------------|-------------------|


  F5                    A5
   W                     W
|---------------------|-----------------------|
|---------------------|-----------------------|
|---------------------|-----------------------|
|--3------------------|--7--------------------|
|--3------------------|--7--------------------|
|--1------------------|--5--------------------|
|
|           ~~~~~~~~~~            ~~
|  E  E  E  Q   Q   E    E  E  E  Q   E  E  E
|---------------------|-------12-10-----13-15-|
|-12----13-12--10--13-|-12-10--------13-------|
|----10---------------|-----------------------|
|---------------------|-----------------------|
|---------------------|-----------------------|
|---------------------|-----------------------|


  F5                     G5                   F5
  Gtr I
   W                      H     Q        Q
|----------------------|-----------------
Добавлено: 26.05.2012
Другие материалы по этой песне:

Страница создана 16.03.2012
http://primanota.ru/blind-guardian/the-age-of-false-innocence-chords.htm
Привет, Гость.
Предлагаем пройти революционный курс по гитаре.
Подарок от PrimaNota.Ru, забирай!