PrimaNota.ru - самый крупный в мире бесплатный архив песенных текстов, аккордов, табулатур и нот


Blind Guardian - Sacred - текст песни, таба, видео

Регистрация Запомнить меня
Войти через:  Facebook Google Twitter Vk Yandex Mail.ru

Blind Guardian - Sacred - текст песни, таба, видео

Печатать
Просмотров: 167
Not tabbed by me; from the guitar pro tab

          PM   PM PM PM PM PM   PM PM PM PM  
          |--3-|  |--3--|  |--3-|  |--3--|   
          Q    E  E  E  E  Q    E  E  E  E   
-------|------------------------------------|
-------|------------------------------------|
-------|------------------------------------|
-------|------------------------------------|
-------|--7----7--7--7--7--7----7--7--7--7--|
-------|------------------------------------|


  PM   PM PM PM PM PM   PM PM PM PM  
  |--3-|  |--3--|  |--3-|  |--3--|   
  Q    E  E  E  E  Q    E  E  E  E   
------------------------------------|
------------------------------------|
------------------------------------|
------------------------------------|
------------------------------------|
--7----7--7--7--7--7----7--7--7--7--|


  PM   PM PM PM PM PM   PM PM PM PM  
  |--3-|  |--3--|  |--3-|  |--3--|   
  Q    E  E  E  E  Q    E  E  E  E   
------------------------------------|
------------------------------------|
------------------------------------|
------------------------------------|
------------------------------------|
--6----6--6--6--6--6----6--6--6--6--|


  PM   PM PM PM PM PM   PM PM PM PM  
  |--3-|  |--3--|  |--3-|  |--3--|   
  Q    E  E  E  E  Q    E  E  E  E   
------------------------------------|
------------------------------------|
------------------------------------|
------------------------------------|
------------------------------------|
--0----0--0--0--0--0----0--0--0--0--|


  PM   PM PM PM PM PM   PM PM PM PM  
  |--3-|  |--3--|  |--3-|  |--3--|   
  Q    E  E  E  E  Q    E  E  E  E   
------------------------------------|
------------------------------------|
------------------------------------|
------------------------------------|
--7----7--7--7--7--7----7--7--7--7--|
------------------------------------|


  PM   PM PM PM PM PM   PM PM PM PM  
  |--3-|  |--3--|  |--3-|  |--3--|   
  Q    E  E  E  E  Q    E  E  E  E   
------------------------------------|
------------------------------------|
------------------------------------|
------------------------------------|
------------------------------------|
--7----7--7--7--7--7----7--7--7--7--|


  PM   PM PM PM PM PM   PM PM PM PM  
  |--3-|  |--3--|  |--3-|  |--3--|   
  Q    E  E  E  E  Q    E  E  E  E   
------------------------------------|
------------------------------------|
------------------------------------|
------------------------------------|
------------------------------------|
--6----6--6--6--6--6----6--6--6--6--|


  PM   PM PM PM PM PM   PM PM PM PM  
  |--3-|  |--3--|  |--3-|  |--3--|   
  Q    E  E  E  E  Q    E  E  E  E   
------------------------------------|
------------------------------------|
------------------------------------|
------------------------------------|
------------------------------------|
--0----0--0--0--0--0----0--0--0--0--|


  PM PM PM PM PM PM PM PM PM PM PM PM  
  |--3--|  |--3--|  |--3--|  |--3--|   
  E  E  E  E  E  E  E  E  E  E  E  E   
--------------------------------------|
--------------------------------------|
--------------------------------------|
--------------------------------------|
--------------------------------------|
--0--0--0--3--0--0--0--0--0--6--0--0--|


  PM PM PM PM PM PM PM PM PM PM PM PM  
  |--3--|  |--3--|  |--3--|  |--3--|   
  E  E  E  E  E  E  E  E  E  E  E  E   
--------------------------------------|
--------------------------------------|
--------------------------------------|
--------------------------------------|
--------------------------------------|
--0--0--0--3--0--0--0--0--0--6--0--0--|


  PM PM PM PM PM PM PM PM PM PM PM PM  
  |--3--|  |--3--|  |--3--|  |--3--|   
  E  E  E  E  E  E  E  E  E  E  E  E   
--------------------------------------|
--------------------------------------|
--------------------------------------|
--------------------------------------|
--------------------------------------|
--0--0--0--3--0--0--0--0--0--6--0--0--|


  PM PM PM PM PM PM PM PM PM PM PM PM  
  |--3--|  |--3--|  |--3--|  |--3--|   
  E  E  E  E  E  E  E  E  E  E  E  E   
--------------------------------------|
--------------------------------------|
--------------------------------------|
--------------------------------------|
--------------------------------------|
--0--0--0--3--0--0--0--0--0--6--0--0--|


  PM PM PM PM PM PM PM PM PM PM PM PM  
  |--3--|  |--3--|  |--3--|  |--3--|   
  E  E  E  E  E  E  E  E  E  E  E  E   
--------------------------------------|
--------------------------------------|
--------------------------------------|
--------------------------------------|
--------------------------------------|
--0--0--0--3--0--0--0--0--0--6--0--0--|


  PM PM PM PM PM PM PM PM PM PM PM PM  
  |--3--|  |--3--|  |--3--|  |--3--|   
  E  E  E  E  E  E  E  E  E  E  E  E   
--------------------------------------|
--------------------------------------|
--------------------------------------|
--------------------------------------|
--------------------------------------|
--0--0--0--3--0--0--0--0--0--6--0--0--|


  PM PM PM PM PM PM PM PM PM PM PM PM  
  |--3--|  |--3--|  |--3--|  |--3--|   
  E  E  E  E  E  E  E  E  E  E  E  E   
--------------------------------------|
--------------------------------------|
--------------------------------------|
--------------------------------------|
--------------------------------------|
--0--0--0--3--0--0--0--0--0--6--0--0--|


  PM PM PM PM PM PM PM PM PM PM PM PM  
  |--3--|  |--3--|  |--3--|  |--3--|   
  E  E  E  E  E  E  E  E  E  E  E  E   
--------------------------------------|
--------------------------------------|
--------------------------------------|
--------------------------------------|
--------------------------------------|
--0--0--0--3--0--0--0--0--0--6--0--0--|


          PM PM PM PM PM    PM PM  
       |--3--|  |--3--|  |--3--|   
  Q    E  E  E  E  E  E  E  E  E   
----------------------------------|
----------------------------------|
----------------------------------|
----------------------------------|
--2-------------------------------|
--0----3--0--0--0--0--0--3--0--0--|


     PM PM    PM PM PM         
  |--3--|  |--3--|             
  E  E  E  E  E  E  Q    Q     
------------------------------|
------------------------------|
------------------------------|
------------------------------|
------------------------------|
--0--0--0--3--0--0--0---------|


          PM PM PM PM PM    PM PM  
       |--3--|  |--3--|  |--3--|   
  Q    E  E  E  E  E  E  E  E  E   
----------------------------------|
----------------------------------|
----------------------------------|
----------------------------------|
--2-------------------------------|
--0----3--0--0--0--0--0--3--0--0--|


     PM PM    PM PM PM         
  |--3--|  |--3--|             
  E  E  E  E  E  E  Q    Q     
------------------------------|
------------------------------|
------------------------------|
------------------------------|
------------------------------|
--0--0--0--3--0--0--0---------|


          PM PM PM PM PM    PM PM  
       |--3--|  |--3--|  |--3--|   
  Q    E  E  E  E  E  E  E  E  E   
----------------------------------|
----------------------------------|
----------------------------------|
----------------------------------|
--2-------------------------------|
--0----3--0--0--0--0--0--3--0--0--|


     PM PM    PM PM PM         
  |--3--|  |--3--|             
  E  E  E  E  E  E  Q    Q     
------------------------------|
------------------------------|
------------------------------|
------------------------------|
------------------------------|
--0--0--0--3--0--0--0---------|


          PM PM PM PM PM    PM PM  
       |--3--|  |--3--|  |--3--|   
  Q    E  E  E  E  E  E  E  E  E   
----------------------------------|
----------------------------------|
----------------------------------|
----------------------------------|
--2-------------------------------|
--0----3--0--0--0--0--0--3--0--0--|


     PM PM    PM PM PM         
  |--3--|  |--3--|             
  E  E  E  E  E  E  Q    Q     
------------------------------|
------------------------------|
------------------------------|
------------------------------|
------------------------------|
--0--0--0--3--0--0--0---------|


  PM   PM PM PM PM PM PM PM PM PM PM  
  |--3-|  |--3--|  |--3--|  |--3--|   
  Q    E  E  E  E  E  E  E  E  E  E   
-------------------------------------|
-------------------------------------|
-------------------------------------|
-------------------------------------|
-------------------------------------|
--0----0--0--0--0--0--0--0--0--0--0--|


  PM   PM PM PM PM PM PM PM PM PM PM  
  |--3-|  |--3--|  |--3--|  |--3--|   
  Q    E  E  E  E  E  E  E  E  E  E   
-------------------------------------|
-------------------------------------|
-------------------------------------|
-------------------------------------|
-------------------------------------|
--7----7--7--7--7--7--7--7--7--7--7--|


  PM   PM PM PM PM PM PM PM PM PM PM  
  |--3-|  |--3--|  |--3--|  |--3--|   
  Q    E  E  E  E  E  E  E  E  E  E   
-------------------------------------|
-------------------------------------|
-------------------------------------|
-------------------------------------|
-------------------------------------|
--6----6--6--6--6--6--6--6--6--6--6--|


  PM   PM PM PM PM                   
  |--3-|  |--3--|  |-----3----|      
  Q    E  E  E  E  Q    Q     Q      
------------------------------------|
------------------------------------|
------------------------------------|
------------------------------------|
------------------------------------|
--0----0--0--0--0--6----5~----3b----|


  PM   PM PM PM PM PM PM PM PM PM PM  
  |--3-|  |--3--|  |--3--|  |--3--|   
  Q    E  E  E  E  E  E  E  E  E  E   
-------------------------------------|
-------------------------------------|
-------------------------------------|
-------------------------------------|
-------------------------------------|
--0----0--0--0--0--0--0--0--0--0--0--|


  PM   PM PM PM PM PM PM PM PM PM PM  
  |--3-|  |--3--|  |--3--|  |--3--|   
  Q    E  E  E  E  E  E  E  E  E  E   
-------------------------------------|
-------------------------------------|
-------------------------------------|
-------------------------------------|
-------------------------------------|
--7----7--7--7--7--7--7--7--7--7--7--|


  PM   PM PM PM PM PM PM PM PM PM PM  
  |--3-|  |--3--|  |--3--|  |--3--|   
  Q    E  E  E  E  E  E  E  E  E  E   
-------------------------------------|
-------------------------------------|
-------------------------------------|
-------------------------------------|
-------------------------------------|
--6----6--6--6--6--6--6--6--6--6--6--|


  PM   PM PM PM PM                   
  |--3-|  |--3--|  |-----3----|      
  Q    E  E  E  E  Q    Q     Q      
------------------------------------|
------------------------------------|
------------------------------------|
------------------------------------|
------------------------------------|
--0----0--0--0--0--6----5~----3b----|


  E  E  H.                            
---------------------|-------|-------|
---------------------|-------|-------|
---------------------|-------|-------|
---------------------|-------|-------|
---------------------|-------|-------|
--0------------------|-------|-------|


-------|-------|-------|-------|-------|
-------|-------|-------|-------|-------|
-------|-------|-------|-------|-------|
-------|-------|-------|-------|-------|
-------|-------|-------|-------|-------|
-------|-------|-------|-------|-------|


-------|-------|-------|-------|-------|
-------|-------|-------|-------|-------|
-------|-------|-------|-------|-------|
-------|-------|-------|-------|-------|
-------|-------|-------|-------|-------|
-------|-------|-------|-------|-------|


                          W                 
-------|-------|-------|-------------------|
-------|-------|-------|-------------------|
-------|-------|-------|-------------------|
-------|-------|-------|-------------------|
-------|-------|-------|--2----------------|
-------|-------|-------|--0----------------|


  W                   W                 
-------------------|-------------------|
-------------------|-------------------|
-------------------|-------------------|
-------------------|--5----------------|
--L----------------|--3----------------|
--L----------------|-------------------|


  W                   W                 
-------------------|-------------------|
-------------------|-------------------|
-------------------|-------------------|
--L----------------|-------------------|
--L----------------|--2----------------|
-------------------|--0----------------|


  W                   W                 
-------------------|-------------------|
-------------------|-------------------|
-------------------|-------------------|
-------------------|--5----------------|
--L----------------|--3----------------|
--L----------------|-------------------|


  W                   W                 
-------------------|-------------------|
-------------------|-------------------|
-------------------|-------------------|
--L----------------|--2----------------|
--L----------------|--0----------------|
-------------------|-------------------|


  W                   W                 
-------------------|-------------------|
-------------------|-------------------|
-------------------|-------------------|
--4----------------|--5----------------|
--2----------------|--3----------------|
-------------------|-------------------|


                             PM PM PM PM     
  W                   Q.     E  E  E  E  E   
-------------------|------------------------|
-------------------|------------------------|
-------------------|------------------------|
--L----------------|------------------------|
--L----------------|--2------------0--2--2--|
-------------------|--0------0--3--------0--|


  W                   W                 
-------------------|-------------------|
-------------------|-------------------|
-------------------|-------------------|
-------------------|-------------------|
--L----------------|--7----------------|
--L----------------|--5----------------|


  H        H         
--------------------|
--------------------|
--------------------|
-----------7--------|
--5--------5--------|
--3-----------------|


         PM PM PM PM                         
  Q.     E  E  E  E  E     W                 
------------------------|-------------------|
------------------------|-------------------|
------------------------|-------------------|
------------------------|-------------------|
--2------------0--2--2--|--L----------------|
--0------0--3--------0--|--L----------------|


  W                   H        H         
-------------------|--------------------|
-------------------|--------------------|
-------------------|--------------------|
-------------------|-----------7--------|
--7----------------|--5--------5--------|
--5----------------|--3-----------------|


         PM PM PM PM                         
  Q.     E  E  E  E  E     W                 
------------------------|-------------------|
------------------------|-------------------|
------------------------|-------------------|
------------------------|-------------------|
--2------------0--2--2--|--L----------------|
--0------0--3--------0--|--L----------------|


  W                   H        H         
-------------------|--------------------|
-------------------|--------------------|
-------------------|--------------------|
-------------------|-----------7--------|
--7----------------|--5--------5--------|
--5----------------|--3-----------------|


         PM PM PM PM                         
  Q.     E  E  E  E  E     W                 
------------------------|-------------------|
------------------------|-------------------|
------------------------|-------------------|
------------------------|-------------------|
--2------------0--2--2--|--L----------------|
--0------0--3--------0--|--L----------------|


  W                   H        H         
-------------------|--------------------|
-------------------|--------------------|
-------------------|--------------------|
-------------------|-----------7--------|
--7----------------|--5--------5--------|
--5----------------|--3-----------------|


  W                   W                 
-------------------|-------------------|
-------------------|-------------------|
-------------------|-------------------|
--5----------------|--L----------------|
--3----------------|--L----------------|
-------------------|-------------------|


  W                   W                 
-------------------|-------------------|
-------------------|-------------------|
-------------------|-------------------|
--7----------------|--L----------------|
--5----------------|--L----------------|
-------------------|-------------------|


  W                   W                 
-------------------|-------------------|
-------------------|-------------------|
-------------------|-------------------|
--5----------------|--L----------------|
--3----------------|--L----------------|
-------------------|-------------------|


  W                   W                 
-------------------|-------------------|
-------------------|-------------------|
-------------------|-------------------|
--7----------------|--L----------------|
--5----------------|--L----------------|
-------------------|-------------------|


  PM PM PM PM PM PM PM PM PM PM PM PM  
  |--3--|  |--3--|  |--3--|  |--3--|   
  E  E  E  E  E  E  E  E  E  E  E  E   
--------------------------------------|
--------------------------------------|
--------------------------------------|
--------------------------------------|
--------------------------------------|
--0--0--0--3--0--0--0--0--0--6--0--0--|


  PM PM PM PM PM PM PM PM PM PM PM PM  
  |--3--|  |--3--|  |--3--|  |--3--|   
  E  E  E  E  E  E  E  E  E  E  E  E   
--------------------------------------|
--------------------------------------|
--------------------------------------|
--------------------------------------|
--------------------------------------|
--0--0--0--3--0--0--0--0--0--6--0--0--|


  PM PM PM PM PM PM PM PM PM PM PM PM  
  |--3--|  |--3--|  |--3--|  |--3--|   
  E  E  E  E  E  E  E  E  E  E  E  E   
--------------------------------------|
--------------------------------------|
--------------------------------------|
--------------------------------------|
--------------------------------------|
--0--0--0--3--0--0--0--0--0--6--0--0--|


  PM PM PM PM PM PM PM PM PM PM PM PM  
  |--3--|  |--3--|  |--3--|  |--3--|   
  E  E  E  E  E  E  E  E  E  E  E  E   
--------------------------------------|
--------------------------------------|
--------------------------------------|
--------------------------------------|
--------------------------------------|
--0--0--0--3--0--0--0--0--0--6--0--0--|


  PM PM PM PM PM PM PM PM PM PM PM PM  
  |--3--|  |--3--|  |--3--|  |--3--|   
  E  E  E  E  E  E  E  E  E  E  E  E   
--------------------------------------|
--------------------------------------|
--------------------------------------|
--------------------------------------|
--------------------------------------|
--0--0--0--3--0--0--0--0--0--6--0--0--|


  PM PM PM PM PM PM PM PM PM PM PM PM  
  |--3--|  |--3--|  |--3--|  |--3--|   
  E  E  E  E  E  E  E  E  E  E  E  E   
--------------------------------------|
--------------------------------------|
--------------------------------------|
--------------------------------------|
--------------------------------------|
--0--0--0--3--0--0--0--0--0--6--0--0--|


  PM PM PM PM PM PM PM PM PM PM PM PM  
  |--3--|  |--3--|  |--3--|  |--3--|   
  E  E  E  E  E  E  E  E  E  E  E  E   
--------------------------------------|
--------------------------------------|
--------------------------------------|
--------------------------------------|
--------------------------------------|
--0--0--0--3--0--0--0--0--0--6--0--0--|


  PM PM PM PM PM PM PM PM PM PM PM PM  
  |--3--|  |--3--|  |--3--|  |--3--|   
  E  E  E  E  E  E  E  E  E  E  E  E   
--------------------------------------|
--------------------------------------|
--------------------------------------|
--------------------------------------|
--------------------------------------|
--0--0--0--3--0--0--0--0--0--6--0--0--|


  PM   PM PM PM PM PM   PM PM PM PM  
  |--3-|  |--3--|  |--3-|  |--3--|   
  Q    E  E  E  E  Q    E  E  E  E   
------------------------------------|
------------------------------------|
------------------------------------|
------------------------------------|
--7----7--7--7--7--7----7--7--7--7--|
------------------------------------|


  PM   PM PM PM PM PM PM PM PM PM PM  
  |--3-|  |--3--|  |--3--|  |--3--|   
  Q    E  E  E  E  E  E  E  E  E  E   
-------------------------------------|
-------------------------------------|
-------------------------------------|
-------------------------------------|
-------------------------------------|
--7----7--7--7--7--7--7--7--7--7--7--|


  PM   PM PM PM PM PM   PM PM PM PM  
  |--3-|  |--3--|  |--3-|  |--3--|   
  Q    E  E  E  E  Q    E  E  E  E   
------------------------------------|
------------------------------------|
------------------------------------|
------------------------------------|
------------------------------------|
--6----6--6--6--6--6----6--6--6--6--|


  PM   PM PM PM PM             
  |--3-|  |--3--|              
  Q    E  E  E  E  E.  E.  E   
------------------------------|
------------------------------|
------------------------------|
------------------------------|
------------------------------|
--0----0--0--0--0--3---5---6--|


  PM   PM PM PM PM PM   PM PM PM PM  
  |--3-|  |--3--|  |--3-|  |--3--|   
  Q    E  E  E  E  Q    E  E  E  E   
------------------------------------|
------------------------------------|
------------------------------------|
------------------------------------|
--7----7--7--7--7--7----7--7--7--7--|
------------------------------------|


  PM   PM PM PM PM PM PM PM PM PM PM  
  |--3-|  |--3--|  |--3--|  |--3--|   
  Q    E  E  E  E  E  E  E  E  E  E   
-------------------------------------|
-------------------------------------|
-------------------------------------|
-------------------------------------|
-------------------------------------|
--7----7--7--7--7--7--7--7--7--7--7--|


  PM   PM PM PM PM PM   PM PM PM PM  
  |--3-|  |--3--|  |--3-|  |--3--|   
  Q    E  E  E  E  Q    E  E  E  E   
------------------------------------|
------------------------------------|
------------------------------------|
------------------------------------|
------------------------------------|
--6----6--6--6--6--6----6--6--6--6--|


  PM                                     
  |--3-|  |---3--|  |---3--|  |---3--|   
  Q    E  E   E  E  E   E  E  E   E  E   
----------------------------------------|
----------------------------------------|
----------------------------------------|
----------------------------------------|
----------------------------------------|
--0----0--3p--0--0--5p--0--0--6p--0--0--|


  ---   ---   ---   ---   ---   ---   --- 
-----|-----|-----|-----|-----|-----|-----|
-----|-----|-----|-----|-----|-----|-----|
-----|-----|-----|-----|-----|-----|-----|
-----|-----|-----|-----|-----|-----|-----|
-----|-----|-----|-----|-----|-----|-----|
-----|-----|-----|-----|-----|-----|-----|


  ---                      
        W                  
-----|--------------------|
-----|--------------------|
-----|--------------------|
-----|--------------------|
-----|--2~----------------|
-----|--------------------|


  H        H           W                  
--------------------|--------------------|
--------------------|--------------------|
--------------------|--------------------|
--------------------|--------------------|
--3--------3--------|--------------------|
--------------------|--5~----------------|


  H        H           W                  
--------------------|--------------------|
--------------------|--------------------|
--------------------|--------------------|
--------------------|--------------------|
--3--------3--------|--2~----------------|
--------------------|--------------------|


  H        H           W                 
--------------------|-------------------|
--------------------|-------------------|
--------------------|-------------------|
--------------------|-------------------|
--3--------3--------|--5----------------|
--------------------|-------------------|


  H        H           W                 
--------------------|-------------------|
--------------------|-------------------|
--------------------|-------------------|
--------------------|-------------------|
--3--------3--------|--2----------------|
--------------------|--0----------------|


  W                   W                 
-------------------|-------------------|
-------------------|-------------------|
-------------------|-------------------|
-------------------|--5----------------|
--L----------------|--3----------------|
--L----------------|-------------------|


  W                   W                 
-------------------|-------------------|
-------------------|-------------------|
-------------------|-------------------|
--L----------------|-------------------|
--L----------------|--2----------------|
-------------------|--0----------------|


  W                   H.           Q     
-------------------|--------------------|
-------------------|--------------------|
-------------------|--------------------|
-------------------|--7------------5----|
--L----------------|--5------------3----|
--L----------------|--------------------|


  W                   W                 
-------------------|-------------------|
-------------------|-------------------|
-------------------|-------------------|
--L----------------|-------------------|
--L----------------|--2----------------|
-------------------|--0----------------|


  W                   W                 
-------------------|-------------------|
-------------------|-------------------|
-------------------|-------------------|
-------------------|--5----------------|
--L----------------|--3----------------|
--L----------------|-------------------|


  W                   W                 
-------------------|-------------------|
-------------------|-------------------|
-------------------|-------------------|
--L----------------|-------------------|
--L----------------|--2----------------|
-------------------|--0----------------|


  W                   H.           Q     
-------------------|--------------------|
-------------------|--------------------|
-------------------|--------------------|
-------------------|--7------------5----|
--L----------------|--5------------3----|
--L----------------|--------------------|


  W                   W                 
-------------------|-------------------|
-------------------|-------------------|
-------------------|-------------------|
--L----------------|--2----------------|
--L----------------|--0----------------|
-------------------|-------------------|


  W                   W                 
-------------------|-------------------|
-------------------|-------------------|
-------------------|-------------------|
--4----------------|--5----------------|
--2----------------|--3----------------|
-------------------|-------------------|


                             PM PM PM PM     
  W                   Q.     E  E  E  E  E   
-------------------|------------------------|
-------------------|------------------------|
-------------------|------------------------|
--L----------------|------------------------|
--L----------------|--2------------0--2--2--|
-------------------|--0------0--3--------0--|


  W                   W                 
-------------------|-------------------|
-------------------|-------------------|
-------------------|-------------------|
-------------------|-------------------|
--L----------------|--7----------------|
--L----------------|--5----------------|


  H        H         
--------------------|
--------------------|
--------------------|
-----------7--------|
--5--------5--------|
--3-----------------|


         PM PM PM PM                         
  Q.     E  E  E  E  E     W                 
------------------------|-------------------|
------------------------|-------------------|
------------------------|-------------------|
------------------------|-------------------|
--2------------0--2--2--|--L----------------|
--0------0--3--------0--|--L----------------|


  W                   H        H         
-------------------|--------------------|
-------------------|--------------------|
-------------------|--------------------|
-------------------|-----------7--------|
--7----------------|--5--------5--------|
--5----------------|--3-----------------|


         PM PM PM PM                         
  Q.     E  E  E  E  E     W                 
------------------------|-------------------|
------------------------|-------------------|
------------------------|-------------------|
------------------------|-------------------|
--2------------0--2--2--|--L----------------|
--0------0--3--------0--|--L----------------|


  W                   H        H         
-------------------|--------------------|
-------------------|--------------------|
-------------------|--------------------|
-------------------|-----------7--------|
--7----------------|--5--------5--------|
--5----------------|--3-----------------|


         PM PM PM PM                         
  Q.     E  E  E  E  E     W                 
------------------------|-------------------|
------------------------|-------------------|
------------------------|-------------------|
------------------------|-------------------|
--2------------0--2--2--|--L----------------|
--0------0--3--------0--|--L----------------|


  W                   H        H         
-------------------|--------------------|
-------------------|--------------------|
-------------------|--------------------|
-------------------|-----------7--------|
--7----------------|--5--------5--------|
--5----------------|--3-----------------|


  W                   W                 
-------------------|-------------------|
-------------------|-------------------|
-------------------|-------------------|
--5----------------|--L----------------|
--3----------------|--L----------------|
-------------------|-------------------|


  W                   W                 
-------------------|-------------------|
-------------------|-------------------|
-------------------|-------------------|
--7----------------|--L----------------|
--5----------------|--L----------------|
-------------------|-------------------|


  W                   W                 
-------------------|-------------------|
-------------------|-------------------|
-------------------|-------------------|
--5----------------|--L----------------|
--3----------------|--L----------------|
-------------------|-------------------|


  W                   W                 
-------------------|-------------------|
-------------------|-------------------|
-------------------|-------------------|
--7----------------|--L----------------|
--5----------------|--L----------------|
-------------------|-------------------|


  PM   PM PM PM PM PM   PM PM PM     
  |--3-|  |--3--|  |--3-|  |--3--|   
  Q    E  E  E  E  Q    E  E  E  E   
------------------------------------|
------------------------------------|
------------------------------------|
------------------------------------|
------------------------------------|
--0----0--0--0--0--0----0--0--0--0--|


  PM   PM PM PM PM PM   PM PM PM PM  
  |--3-|  |--3--|  |--3-|  |--3--|   
  Q    E  E  E  E  Q    E  E  E  E   
------------------------------------|
------------------------------------|
------------------------------------|
------------------------------------|
--3----3--3--3--3--2----2--2--2--2--|
------------------------------------|


  PM   PM PM PM PM PM   PM PM PM PM  
  |--3-|  |--3--|  |--3-|  |--3--|   
  Q    E  E  E  E  Q    E  E  E  E   
------------------------------------|
------------------------------------|
------------------------------------|
------------------------------------|
--3----3--3--3--3--3----3--3--3--3--|
------------------------------------|


  PM   PM PM PM PM PM   PM PM PM PM  
  |--3-|  |--3--|  |--3-|  |--3--|   
  Q    E  E  E  E  Q    E  E  E  E   
------------------------------------|
------------------------------------|
------------------------------------|
------------------------------------|
--3----3--3--3--3--2----2--2--2--2--|
------------------------------------|


  PM   PM PM PM PM PM   PM PM PM PM  
  |--3-|  |--3--|  |--3-|  |--3--|   
  Q    E  E  E  E  Q    E  E  E  E   
------------------------------------|
------------------------------------|
------------------------------------|
------------------------------------|
--0----0--0--0--0--0----0--0--0--0--|
------------------------------------|


  PM   PM PM PM PM PM   PM PM PM PM  
  |--3-|  |--3--|  |--3-|  |--3--|   
  Q    E  E  E  E  Q    E  E  E  E   
------------------------------------|
------------------------------------|
------------------------------------|
------------------------------------|
--3----3--3--3--3--2----2--2--2--2--|
------------------------------------|


  H        H         
--------------------|
--------------------|
--------------------|
--5--------2--------|
--2--------0--------|
--------------------|


           |----3----|     
  H        Q    Q    Q     
--------------------------|
--------------------------|
--------------------------|
--------------------------|
--5-----------------------|
--3--------2----3----2----|


  PM   PM PM PM PM PM   PM PM PM PM  
  |--3-|  |--3--|  |--3-|  |--3--|   
  Q    E  E  E  E  Q    E  E  E  E   
------------------------------------|
------------------------------------|
------------------------------------|
------------------------------------|
--7----7--7--7--7--7----7--7--7--7--|
------------------------------------|


  PM   PM PM PM PM PM   PM PM PM PM  
  |--3-|  |--3--|  |--3-|  |--3--|   
  Q    E  E  E  E  Q    E  E  E  E   
------------------------------------|
------------------------------------|
------------------------------------|
------------------------------------|
------------------------------------|
--7----7--7--7--7--7----7--7--7--7--|


  PM   PM PM PM PM PM   PM PM PM PM  
  |--3-|  |--3--|  |--3-|  |--3--|   
  Q    E  E  E  E  Q    E  E  E  E   
------------------------------------|
------------------------------------|
------------------------------------|
------------------------------------|
------------------------------------|
--6----6--6--6--6--6----6--6--6--6--|


  PM   PM PM PM PM             
  |--3-|  |--3--|              
  Q    E  E  E  E  E.  E.  E   
------------------------------|
------------------------------|
------------------------------|
------------------------------|
------------------------------|
--0----0--0--0--0--3---5---6--|


  PM   PM PM PM PM PM   PM PM PM PM  
  |--3-|  |--3--|  |--3-|  |--3--|   
  Q    E  E  E  E  Q    E  E  E  E   
------------------------------------|
------------------------------------|
------------------------------------|
------------------------------------|
--7----7--7--7--7--7----7--7--7--7--|
------------------------------------|


  PM   PM PM PM PM PM   PM PM PM PM  
  |--3-|  |--3--|  |--3-|  |--3--|   
  Q    E  E  E  E  Q    E  E  E  E   
------------------------------------|
------------------------------------|
------------------------------------|
------------------------------------|
------------------------------------|
--7----7--7--7--7--7----7--7--7--7--|


  PM   PM PM PM PM PM   PM PM PM PM  
  |--3-|  |--3--|  |--3-|  |--3--|   
  Q    E  E  E  E  Q    E  E  E  E   
------------------------------------|
------------------------------------|
------------------------------------|
------------------------------------|
------------------------------------|
--6----6--6--6--6--6----6--6--6--6--|


  PM                                     
  |--3-|  |---3--|  |---3--|  |---3--|   
  Q    E  E   E  E  E   E  E  E   E  E   
----------------------------------------|
----------------------------------------|
----------------------------------------|
----------------------------------------|
----------------------------------------|
--0----0--3p--0--0--5p--0--0--6p--0--0--|


       PM PM PM PM PM PM PM PM PM PM  
  |--3-|  |--3--|  |--3--|  |--3--|   
  Q    E  E  E  E  E  E  E  E  E  E   
-------------------------------------|
-------------------------------------|
-------------------------------------|
--9----------------------------------|
--7----7--7--7--7--7--7--7--7--7--7--|
-------------------------------------|


       PM PM PM PM PM PM PM PM PM PM  
  |--3-|  |--3--|  |--3--|  |--3--|   
  Q    E  E  E  E  E  E  E  E  E  E   
-------------------------------------|
-------------------------------------|
-------------------------------------|
--9----------------------------------|
--6----6--6--6--6--6--6--6--6--6--6--|
-------------------------------------|


       PM PM PM PM PM PM PM PM PM PM  
  |--3-|  |--3--|  |--3--|  |--3--|   
  Q    E  E  E  E  E  E  E  E  E  E   
-------------------------------------|
-------------------------------------|
-------------------------------------|
--7----------------------------------|
--5----5--5--5--5--5--5--5--5--5--5--|
-------------------------------------|


  H        H         
--------------------|
--------------------|
--------------------|
--7--------5--------|
--4--------3--------|
--------------------|


       PM PM PM PM PM PM PM PM PM PM  
  |--3-|  |--3--|  |--3--|  |--3--|   
  Q    E  E  E  E  E  E  E  E  E  E   
-------------------------------------|
-------------------------------------|
-------------------------------------|
--9----------------------------------|
--7----7--7--7--7--7--7--7--7--7--7--|
-------------------------------------|


       PM PM PM PM PM PM PM PM PM PM  
  |--3-|  |--3--|  |--3--|  |--3--|   
  Q    E  E  E  E  E  E  E  E  E  E   
-------------------------------------|
-------------------------------------|
-------------------------------------|
--9----------------------------------|
--6----6--6--6--6--6--6--6--6--6--6--|
-------------------------------------|


       PM PM PM PM PM PM PM PM PM PM  
  |--3-|  |--3--|  |--3--|  |--3--|   
  Q    E  E  E  E  E  E  E  E  E  E   
-------------------------------------|
-------------------------------------|
-------------------------------------|
--7----------------------------------|
--5----5--5--5--5--5--5--5--5--5--5--|
-------------------------------------|


  H        H           W                 
--------------------|-------------------|
--------------------|-------------------|
--------------------|-------------------|
--7--------5--------|-------------------|
--4--------3--------|-------------------|
--------------------|--0----------------|


  W                   W                 
-------------------|-------------------|
-------------------|-------------------|
-------------------|-------------------|
-------------------|-------------------|
--3----------------|-------------------|
-------------------|--5----------------|


  W                   W                 
-------------------|-------------------|
-------------------|-------------------|
-------------------|-------------------|
-------------------|-------------------|
--3----------------|-------------------|
-------------------|--0----------------|


  W                   W                 
-------------------|-------------------|
-------------------|-------------------|
-------------------|-------------------|
-------------------|-------------------|
--3----------------|--5----------------|
-------------------|-------------------|


                             PM PM PM PM     
  W                   Q.     E  E  E  E  E   
-------------------|------------------------|
-------------------|------------------------|
-------------------|------------------------|
-------------------|------------------------|
--3----------------|--2------------0--2--2--|
-------------------|--0------0--3--------0--|


  W                   W                 
-------------------|-------------------|
-------------------|-------------------|
-------------------|-------------------|
-------------------|-------------------|
--L----------------|--7----------------|
--L----------------|--5----------------|


  H        H         
--------------------|
--------------------|
--------------------|
-----------7--------|
--5--------5--------|
--3-----------------|


         PM PM PM PM                         
  Q.     E  E  E  E  E     W                 
------------------------|-------------------|
------------------------|-------------------|
------------------------|-------------------|
------------------------|-------------------|
--2------------0--2--2--|--L----------------|
--0------0--3--------0--|--L----------------|


  W                   H        H         
-------------------|--------------------|
-------------------|--------------------|
-------------------|--------------------|
-------------------|-----------7--------|
--7----------------|--5--------5--------|
--5----------------|--3-----------------|


         PM PM PM PM                         
  Q.     E  E  E  E  E     W                 
------------------------|-------------------|
------------------------|-------------------|
------------------------|-------------------|
------------------------|-------------------|
--2------------0--2--2--|--L----------------|
--0------0--3--------0--|--L----------------|


  W                   H        H         
-------------------|--------------------|
-------------------|--------------------|
-------------------|--------------------|
-------------------|-----------7--------|
--7----------------|--5--------5--------|
--5----------------|--3-----------------|


         PM PM PM PM                         
  Q.     E  E  E  E  E     W                 
------------------------|-------------------|
------------------------|-------------------|
------------------------|-------------------|
------------------------|-------------------|
--2------------0--2--2--|--L----------------|
--0------0--3--------0--|--L----------------|


  W                   H        H         
-------------------|--------------------|
-------------------|--------------------|
-------------------|--------------------|
-------------------|-----------7--------|
--7----------------|--5--------5--------|
--5----------------|--3-----------------|


  PM   PM PM PM PM PM PM PM PM PM PM  
  |--3-|  |--3--|  |--3--|  |--3--|   
  Q    E  E  E  E  E  E  E  E  E  E   
-------------------------------------|
-------------------------------------|
-------------------------------------|
-------------------------------------|
--7----7--7--7--7--7--7--7--7--7--7--|
-------------------------------------|


  PM   PM PM PM PM PM PM PM PM PM PM  
  |--3-|  |--3--|  |--3--|  |--3--|   
  Q    E  E  E  E  E  E  E  E  E  E   
-------------------------------------|
-------------------------------------|
-------------------------------------|
-------------------------------------|
-------------------------------------|
--7----7--7--7--7--7--7--7--7--7--7--|


  PM   PM PM PM PM PM PM PM PM PM PM  
  |--3-|  |--3--|  |--3--|  |--3--|   
  Q    E  E  E  E  E  E  E  E  E  E   
-------------------------------------|
-------------------------------------|
-------------------------------------|
-------------------------------------|
-------------------------------------|
--6----6--6--6--6--6--6--6--6--6--6--|


  PM   PM PM PM PM                   
  |--3-|  |--3--|  |-----3----|      
  Q    E  E  E  E  Q    Q     Q      
------------------------------------|
------------------------------------|
------------------------------------|
------------------------------------|
------------------------------------|
--0----0--0--0--0--6----5~----3b----|


  PM   PM PM PM PM PM PM PM PM PM PM  
  |--3-|  |--3--|  |--3--|  |--3--|   
  Q    E  E  E  E  E  E  E  E  E  E   
-------------------------------------|
-------------------------------------|
-------------------------------------|
-------------------------------------|
-------------------------------------|
--0----0--0--0--0--0--0--0--0--0--0--|


  PM   PM PM PM PM PM PM PM PM PM PM  
  |--3-|  |--3--|  |--3--|  |--3--|   
  Q    E  E  E  E  E  E  E  E  E  E   
-------------------------------------|
-------------------------------------|
-------------------------------------|
-------------------------------------|
-------------------------------------|
--7----7--7--7--7--7--7--7--7--7--7--|


  PM   PM PM PM PM PM PM PM PM PM PM  
  |--3-|  |--3--|  |--3--|  |--3--|   
  Q    E  E  E  E  E  E  E  E  E  E   
-------------------------------------|
-------------------------------------|
-------------------------------------|
-------------------------------------|
-------------------------------------|
--6----6--6--6--6--6--6--6--6--6--6--|


  PM   PM PM PM PM                   
  |--3-|  |--3--|  |-----3----|      
  Q    E  E  E  E  Q    Q     Q      
------------------------------------|
------------------------------------|
------------------------------------|
------------------------------------|
------------------------------------|
--0----0--0--0--0--6----5~----3b----|


  W                   W                 
-------------------|-------------------|
-------------------|-------------------|
-------------------|-------------------|
-------------------|--4----------------|
--2----------------|--2----------------|
--0----------------|-------------------|


  W                   W                 
-------------------|-------------------|
-------------------|-------------------|
-------------------|-------------------|
-------------------|--2----------------|
--5----------------|--0----------------|
--3----------------|-------------------|


  W                   W                 
-------------------|-------------------|
-------------------|-------------------|
-------------------|-------------------|
-------------------|--4----------------|
--2----------------|--2----------------|
--0----------------|-------------------|


  W                   W                 
-------------------|-------------------|
-------------------|-------------------|
-------------------|-------------------|
-------------------|--2----------------|
--5----------------|--0----------------|
--3----------------|-------------------|


  PM   PM PM PM PM PM   PM PM PM PM  
  |--3-|  |--3--|  |--3-|  |--3--|   
  Q    E  E  E  E  Q    E  E  E  E   
------------------------------------|
------------------------------------|
------------------------------------|
------------------------------------|
------------------------------------|
--0----0--3--0--0--0----0--3--0--0--|


  PM   PM PM PM PM PM PM PM PM PM PM  
  |--3-|  |--3--|  |--3--|  |--3--|   
  Q    E  E  E  E  E  E  E  E  E  E   
-------------------------------------|
-------------------------------------|
-------------------------------------|
-------------------------------------|
-------------------------------------|
--0----0--3--0--0--5--0--0--6--0--0--|


  PM   PM PM PM PM PM   PM PM PM PM  
  |--3-|  |--3--|  |--3-|  |--3--|   
  Q    E  E  E  E  Q    E  E  E  E   
------------------------------------|
------------------------------------|
------------------------------------|
------------------------------------|
------------------------------------|
--0----0--3--0--0--0----0--3--0--0--|


  PM   PM PM PM PM PM PM PM PM PM PM  
  |--3-|  |--3--|  |--3--|  |--3--|   
  Q    E  E  E  E  E  E  E  E  E  E   
-------------------------------------|
-------------------------------------|
-------------------------------------|
-------------------------------------|
-------------------------------------|
--0----0--3--0--0--5--0--0--6--0--0--|


  PM   PM PM PM PM PM   PM PM PM PM  
  |--3-|  |--3--|  |--3-|  |--3--|   
  Q    E  E  E  E  Q    E  E  E  E   
------------------------------------|
------------------------------------|
------------------------------------|
------------------------------------|
------------------------------------|
--0----0--0--0--0--0----0--0--0--0--|


  PM   PM PM PM PM PM PM PM PM PM PM  
  |--3-|  |--3--|  |--3--|  |--3--|   
  Q    E  E  E  E  E  E  E  E  E  E   
-------------------------------------|
-------------------------------------|
-------------------------------------|
-------------------------------------|
-------------------------------------|
--0----0--3--0--0--5--0--0--6--0--0--|


  PM   PM PM PM PM PM   PM PM PM PM  
  |--3-|  |--3--|  |--3-|  |--3--|   
  Q    E  E  E  E  Q    E  E  E  E   
------------------------------------|
------------------------------------|
------------------------------------|
------------------------------------|
--2----2--2--2--2--2----2--2--2--2--|
------------------------------------|


  Q    H.             
--------------------||
--------------------||
--------------------||
--------------------||
--2-----------------||
--0-----------------||
Добавлено: 16.04.2012
Другие материалы по этой песне:

Страница создана 16.04.2012
http://primanota.ru/blind-guardian/sacred-chords.htm
Привет, Гость.
Предлагаем пройти революционный курс по гитаре.
Подарок от PrimaNota.Ru, забирай!