PrimaNota.ru - самый крупный в мире бесплатный архив песенных текстов, аккордов, табулатур и нот


Blind Guardian - A Dark Passage - текст песни, таба, бас-таба, видео

Регистрация Запомнить меня
Войти через:  Facebook Google Twitter Vk Yandex Mail.ru

Blind Guardian - A Dark Passage - текст песни, таба, бас-таба, видео

Печатать
Просмотров: 112
Авторы музыки: Hansi Kürsch, André Olbrich
Авторы текста: Hansi Kürsch
Blind Guardian - A Dark Passage
Tabbed by Lorcan Ward
Tuning Eb Standard

Guitar solo at 2:34
     
|------------------------------------------------7---------------------|
|--------------------------------------7--9--10-----12b(14)-----12~~~~-|
|-----------------------------6--7--9----------------------------------|
|--------------------6--7--9-------------------------------------------|
|-----------5--7--9----------------------------------------------------|
|--5--7--9-------------------------------------------------------------|

|--9--7--5-------------------------------------------------------------|
|-----------9--7--5--------10--9--7------------------------------------|
|--------------------7--6------------9--7--6--------11b13-----9--9~~~--|
|---------------------------------------------9--7---------------------|
|----------------------------------------------------------------------|
|----------------------------------------------------------------------|
 
|-------------9h10p9--------------------------12h14p12-----------------|
|-------10h12--------12-10--10h12p10h12p10~~-----------15----15--14p12-|
|--9h11---------------------------------------------------14-----------|
|----------------------------------------------------------------------|
|----------------------------------------------------------------------|
|----------------------------------------------------------------------|

|--------------------------------------------------12----------------------|
|------12--17b19--17~~--10--14p12p10-14--15p14p12------15p14p12-14--12p10--|
|--14----------------------------------------------------------------------|
|--------------------------------------------------------------------------|
|--------------------------------------------------------------------------|
|--------------------------------------------------------------------------|
 
|--------------------------------------------------9------------12b14--9---|
|--12b14r12---12-10--12b14--12~~~~-------9--10--12---12--10--9-------------|
|------------------------------------11------------------------------------|
|--------------------------------------------------------------------------|
|--------------------------------------------------------------------------|
|--------------------------------------------------------------------------|
      
|--9---7h9p7----7-------------------9--10--9h10p9--7--9--7--------|
|------------10---10--9--10---------------------------------10-9--|
|-----------------------------7~----------------------------------|
|-----------------------------------------------------------------|
|-----------------------------------------------------------------|
|-----------------------------------------------------------------|
      
|---9--7h9p7-------------------------------------------|
|-------------10--9----5h7-----------------------------|
|---------------------------7----7h9--6/7--7~~~~~------|
|------------------------------------------------------|
|------------------------------------------------------|
|------------------------------------------------------|

|----------------------------------10-12h14p12~---|
|-------------9/10--10~--10-12-14-----------------|
|--9/11--11~--------------------------------------|
|-------------------------------------------------|
|-------------------------------------------------|
|-------------------------------------------------|
 
|--------------------------------------------------------------------|
|--14h15p14h15p14h15-10h12p10h12p10h12-------------------------------|
|--------------------------------------9h11p9h11p9h11-7h9p7h9p7h9p7--|
|--------------------------------------------------------------------|
|--------------------------------------------------------------------|
|--------------------------------------------------------------------|
    
|-------------9h10p9----12b14--12---9---------|
|-------10-12--------10-----------------------|
|--9-11---------------------------------------|
|---------------------------------------------|
|---------------------------------------------|
|---------------------------------------------|
 
|--------------------------------------------------------------------|
|-----------------9h10p9h10p9h10-12h14p12h14p12h14-14h15p14h15p14h15-|
|--9h11p9h11p9h11----------------------------------------------------|
|--------------------------------------------------------------------|
|--------------------------------------------------------------------|
|--------------------------------------------------------------------|
 
|-----------------------12----------------------19b21~~~~~-----19b21~~~~~-|
|--------------12-14-15---------------------------------------------------|
|-----11-13-14-------------9---11---12---13-------------------------------|
|--14---------------------------------------------------------------------|
|-------------------------------------------------------------------------|
|-------------------------------------------------------------------------|
                      
|--7/9--7--5----------------------------------------------|
|-------------9--7--5--------9/10--9--7-------------------|
|----------------------7--6--------------9--7--6----------|
|-------------------------------------------------9--7----|
|---------------------------------------------------------|
|---------------------------------------------------------|
Добавлено: 15.07.2015
Другие материалы по этой песне:

Страница создана 07.03.2012
http://primanota.ru/blind-guardian/a-dark-passage-chords.htm
Привет, Гость.
Предлагаем пройти революционный курс по гитаре.
Подарок от PrimaNota.Ru, забирай!