PrimaNota.ru - самый крупный в мире бесплатный архив песенных текстов, аккордов, табулатур и нот


Blind Dog - Save You From Yourself - таба, видео

Регистрация Запомнить меня
Войти через:  Facebook Google Twitter Vk Yandex Mail.ru

Blind Dog - Save You From Yourself - таба, видео

Печатать
Просмотров: 116
save you from yourself


blind dog


TRANSCRIBED BY RUDY GUZMAN


guzman_84@hotmail.com


                ****Note******
i made 2 versions of this tab D tuning and E standard
scroll down for the E standard


****** dropped D tuning *******
                                               
e:-------------------------------------------------------------|
B:-3--3--3-3--------6-6----------------------------------------|
G:-0--0--0-0--------0-0------8-8-8--10-10-10-10-8--9-9-9-9-----|
D:-0--0--0-0-----0--0-0------8-8-8--10-10-10-10-8--8-8-8-8-----|
A:----0--0-0-----0-------0h6-6-6-6--8--8--8--8--8--8-8-8-8--0--|
D:----5------5/8-8-----------0------0--0--0--0-----0-0-0-0--0--|


e:----------------------------------------------------------|
B:-3--3-3--------6-6----------------------------------------|
G:-0--0-0--------0-0------8-8-8--10-10-10-10-8--9-9-9-9-----|
D:-0--0-0-----0--0-0------8-8-8--10-10-10-10-8--8-8-8-8-----|
A:-0--0-0-----0-------0h6-6-6-6--8--8--8--8--8--8-8-8-8--0--|
D:-5------5/8-8-----------0------0--0--0--0-----0-0-0-0--0--|


   last night i didnt sleep well...
e:----------------------------------------------------------|
B:-3--3-3--------6-6----------------------------------------|
G:-0--0-0--------0-0------8-8-8--10-10-10-10-8--9-9-9-9-----|
D:-0--0-0-----0--0-0------8-8-8--10-10-10-10-8--8-8-8-8-----|
A:-0--0-0-----0-------0h6-6-6-6--8--8--8--8--8--8-8-8-8--0--|
D:-5------5/8-8-----------0------0--0--0--0-----0-0-0-0--0--|

    i cant say that...
e:-------------------------------------------------------------|
B:-------------------------------------------------------------|
G:-8--8-8-----10-10-10-8--9-9-9-0-----------------------8--8-8-|
D:-8--8-8-----10-10-10-8--8-8-8-0-----5-5----------5h7--8--8-8-|
A:-6--6-6--8--8--8--8--8--8-8-8-0--5--5-5------5h7------6--6-6-|
D:---------8-----------8--8-8-8----5--5-5--7h9-----------------|

e:-------------------------------------------------------|
B:-------------------------------------------------------|
G:-8--8-8-----10-10-10-8--9-9-9-0------------------------|
D:-8--8-8-----10-10-10-8--8-8-8-0-----5-5----------------|
A:-6--6-6--8--8--8--8--8--8-8-8-0--5--5-5------5h7-------|
D:---------8-----------8--8-8-8----5--5-5--7h9-----7h9p7-|

e:-----------------------------------------------------|
B:-----------------------------------------------------|
G:-8--8-8-----10-10-10-8--9-9-9-0----------------------|
D:-8--8-8-----10-10-10-8--8-8-8-0-----5-5----------5---|
A:-6--6-6--8--8--8--8--8--8-8-8-0--5--5-5------5h7---5-|
D:---------8-----------8--8-8-8----5--5-5--7h9---------|

e:------------------------------------|
B:------------------------------------|
G:-8--8-8-----10-10-10-8--9-9-9-0-----|
D:-8--8-8-----10-10-10-8--8-8-8-0--5--|
A:-6--6-6--8--8--8--8--8--8-8-8-0--5--|
D:---------8-----------8--8-8-8----5--|


   last night i didnt sleep well...
e:----------------------------------------------------------|
B:-3--3-3--------6-6----------------------------------------|
G:-0--0-0--------0-0------8-8-8--10-10-10-10-8--9-9-9-9-----|
D:-0--0-0-----0--0-0------8-8-8--10-10-10-10-8--8-8-8-8-----|
A:-0--0-0-----0-------0h6-6-6-6--8--8--8--8--8--8-8-8-8--0--|
D:-5------5/8-8-----------0------0--0--0--0-----0-0-0-0--0--|

    i cant say that...
e:-------------------------------------------------------------|
B:-------------------------------------------------------------|
G:-8--8-8-----10-10-10-8--9-9-9-0-----------------------8--8-8-|
D:-8--8-8-----10-10-10-8--8-8-8-0-----5-5----------5h7--8--8-8-|
A:-6--6-6--8--8--8--8--8--8-8-8-0--5--5-5------5h7------6--6-6-|
D:---------8-----------8--8-8-8----5--5-5--7h9-----------------|

e:-------------------------------------------------------|
B:-------------------------------------------------------|
G:-8--8-8-----10-10-10-8--9-9-9-0------------------------|
D:-8--8-8-----10-10-10-8--8-8-8-0-----5-5----------------|
A:-6--6-6--8--8--8--8--8--8-8-8-0--5--5-5------5h7-------|
D:---------8-----------8--8-8-8----5--5-5--7h9-----7h9p7-|

e:-----------------------------------------------------|
B:-----------------------------------------------------|
G:-8--8-8-----10-10-10-8--9-9-9-0----------------------|
D:-8--8-8-----10-10-10-8--8-8-8-0-----5-5----------5---|
A:-6--6-6--8--8--8--8--8--8-8-8-0--5--5-5------5h7---5-|
D:---------8-----------8--8-8-8----5--5-5--7h9---------|

e:--------------------------------|
B:--------------------------------|
G:-8--8-8-----10-10-10-8--9-9-9-0-|
D:-8--8-8-----10-10-10-8--8-8-8-0-|
A:-6--6-6--8--8--8--8--8--8-8-8-0-|
D:---------8-----------8--8-8-8---|

e:---------------------------------------------|
B:---------------------------------------------|
G:-----------12----12---------10----10----10---|
D:-10--10-10-10----10-----8-8-8-----8-----8----|
A:-10--10-10-10-10-10-10--8-8-8--8--8--8--8--8-|
D:-10--10-10----10----10--8-8----8-----8-----8-|

e:---------------------------------|
B:---------------------------------|
G:-8--8-8-8--10-10-10-----10-------|
D:-8--8-8-8--10-10-10--10----10--5-|
A:-6--6-6-6--8--8--8-------------5-|
D:-------------------------------5-|

   violin effect
e:---------------------------------------------------|
B:-12--12-12--12\8--8-8--8/16--16-16p15--15-15\13-13-|
G:-0---0--0---0-----0-0--0-----0--0------0--0-----0--|
D:-0---0--0---0-----0-0--0-----0--0------0--0-----0--|
A:---------------------------------------------------|
D:---------------------------------------------------|

e:-------------------------------------------------|
B:-12--12-12--12\8--8-8--8/11--11-11p10--10-10\8-8-|
G:-0---0--0---0-----0-0--0-----0--0------0--0----0-|
D:-0---0--0---0-----0-0--0-----0--0------0--0----0-|
A:-------------------------------------------------|
D:-------------------------------------------------|

  last night found no solution
e:---------------------------------------------------|
B:-12--12-12--12\8--8-8--8/16--16-16p15--15-15\13-13-|
G:-0---0--0---0-----0-0--0-----0--0------0--0-----0--|
D:-0---0--0---0-----0-0--0-----0--0------0--0-----0--|
A:---------------------------------------------------|
D:---------------------------------------------------|

e:-----------------------------------|
B:-12--12-12--12\8--8-8--8/11--11-11-|
G:-0---0--0---0-----0-0--0-----0--0--|
D:-0---0--0---0-----0-0--0-----0--0--|
A:-----------------------------------|
D:-----------------------------------|

   *gt2 under the solo*
e:--------------------------------------------------|
B:-3--3-3-----6--6-6--6------8--8--8--8--3--3-3-3-3-|
G:-0--0-0-----0--0-0--0------0--0--0--0--0--0-0-0-0-|
D:-0--0-0-----0--0-0--0------0--0--0--0--0--0-0-0-0-|
A:-0--0-0-----0--0-0--0------0--0--0--0--0--0-0-0-0-|
D:-5--5-5-5/8-8--8-8--8/10--10-10-10-10--5--5-5-5-5-|

e:----------------------|
B:----------------------|
G:----------------------|
D:---------5---5--------|
A:-----5h7---5----------|
D:-7h9------------------|

  gt2 under the solo  
e:--------------------------------------------------|
B:-3--3-3-----6--6-6--6------8--8--8--8--3--3-3-3-3-|
G:-0--0-0-----0--0-0--0------0--0--0--0--0--0-0-0-0-|
D:-0--0-0-----0--0-0--0------0--0--0--0--0--0-0-0-0-|
A:-0--0-0-----0--0-0--0------0--0--0--0--0--0-0-0-0-|
D:-5--5-5-5/8-8--8-8--8/10--10-10-10-10--5--5-5-5-5-|

e:------------------------|
B:------------------------|
G:------------------------|
D:---------5---5-7/9------|
A:-----5h7---7------------|
D:-7h9--------------------|

e:--------------------------------------------------|
B:-3--3-3-----6--6-6--6------8--8--8--8--3--3-3-3-3-|
G:-0--0-0-----0--0-0--0------0--0--0--0--0--0-0-0-0-|
D:-0--0-0-----0--0-0--0------0--0--0--0--0--0-0-0-0-|
A:-0--0-0-----0--0-0--0------0--0--0--0--0--0-0-0-0-|
D:-5--5-5-5/8-8--8-8--8/10--10-10-10-10--5--5-5-5-5-|

e:------------------------|
B:------------------------|
G:------------------------|
D:---------5---5-7/9------|
A:-----5h7---7------------|
D:-7h9--------------------|


  solo
e:---------------------------9------------------------------|
B:---------------------8---8--------------------------------|
G:-----------------7h9---9-------14bfp12----12----12~~~-----|
D:-7h9--7h9--7---------------------------14----14--------14-|
A:--------------10------------------------------------------|
D:----------------------------------------------------------|

e:-----------------------------------------------------|
B:------------------------------14----12-----12b-------|
G:---------------11b--12-9------14----12-----12b-------|
D:---------5-----------------------14-----14-----14~~~-|
A:-----5h7---7-----------------------------------------|
D:-7h9-------------------------------------------------|

e:----------------------------------------------------------|
B:-------------------------8---8----------------------------|
G:--------12---12----------7---7----------------------------|
D:-2/9-9-----9-----7-----7---7----9------------7------------|
A:-------------------10---------------10-10-10---10-7-10~~~-|
D:----------------------------------------------------------|

e:------------------------------------------------------------------|
B:------------------------------------------------------------------|
G:------------------------------------7h9-7~~-----------------------|
D:---------5---5-7/9------5-------5h7---------9-7--5-7-----5-7--5~~-|
A:-----5h7---7--------5h7---7\5/7----------------------5-7----------|
D:-7h9--------------------------------------------------------------|

   if it times...
  gt1
e:---------------------------------------------------------------|
B:-------8---8------8---8------8---------------------------------|
G:-----7---7------7---7------7---7--------14b-14-12-14----12~~~--|
D:-/9-----------7----------5-------5--5----------------14--------|
A:------------------------------------5--------------------------|
D:------------------------------------5--------------------------|
  gt2
e:--------------------------------------------------|
B:-3--3-3-----6--6-6--6------8--8--8--8--3--3-3-3-3-|
G:-0--0-0-----0--0-0--0------0--0--0--0--0--0-0-0-0-|
D:-0--0-0-----0--0-0--0------0--0--0--0--0--0-0-0-0-|
A:-0--0-0-----0--0-0--0------0--0--0--0--0--0-0-0-0-|
D:-5--5-5-5/8-8--8-8--8/10--10-10-10-10--5--5-5-5-5-|

  gt1
e:---------------------------------------------------------------------|
B:-------8---8------8---8------8---------------------------------------|
G:-----7---7------7---7------7---7-----------------12------------------|
D:-/9-----------7----------5-------5--5---------12----12---------------|
A:------------------------------------5---12h14----------12-14--10~~~~-|
D:------------------------------------5--------------------------------|
  gt2
e:--------------------------------------------------|
B:-3--3-3-----6--6-6--6------8--8--8--8--3--3-3-3-3-|
G:-0--0-0-----0--0-0--0------0--0--0--0--0--0-0-0-0-|
D:-0--0-0-----0--0-0--0------0--0--0--0--0--0-0-0-0-|
A:-0--0-0-----0--0-0--0------0--0--0--0--0--0-0-0-0-|
D:-5--5-5-5/8-8--8-8--8/10--10-10-10-10--5--5-5-5-5-|

  gt1                                    pm...............
e:------------------------------------------------------------|
B:-------8---8------8---8------8------------------------------|
G:-----7---7------7---7------7---7----------------------------|
D:-/9-----------7----------5-------5--5----------5-7-5---5~~~-|
A:------------------------------------5------5-7-------7------|
D:------------------------------------5----7------------------|
  gt2
e:--------------------------------------------------|
B:-3--3-3-----6--6-6--6------8--8--8--8--3--3-3-3-3-|
G:-0--0-0-----0--0-0--0------0--0--0--0--0--0-0-0-0-|
D:-0--0-0-----0--0-0--0------0--0--0--0--0--0-0-0-0-|
A:-0--0-0-----0--0-0--0------0--0--0--0--0--0-0-0-0-|
D:-5--5-5-5/8-8--8-8--8/10--10-10-10-10--5--5-5-5-5-|

   gt1
e:---------------------------------------------------------------|
B:-------8---8------8---8------8---------------------------------|
G:-----7---7------7---7------7---7---------------------12-12~~~~-|
D:-/9-----------7----------5-------5--5----------12h14-----------|
A:------------------------------------5----12h14-----------------|
D:------------------------------------5--------------------------|
   gt2
e:--------------------------------------------------|
B:-3--3-3-----6--6-6--6------8--8--8--8--3--3-3-3-3-|
G:-0--0-0-----0--0-0--0------0--0--0--0--0--0-0-0-0-|
D:-0--0-0-----0--0-0--0------0--0--0--0--0--0-0-0-0-|
A:-0--0-0-----0--0-0--0------0--0--0--0--0--0-0-0-0-|
D:-5--5-5-5/8-8--8-8--8/10--10-10-10-10--5--5-5-5-5-|

                                                  x2
e:--------------------------------------------------|
B:-3--3-3-----6--6-6--6------8--8--8--8--3--3-3-3-3-|
G:-0--0-0-----0--0-0--0------0--0--0--0--0--0-0-0-0-|
D:-0--0-0-----0--0-0--0------0--0--0--0--0--0-0-0-0-|
A:-0--0-0-----0--0-0--0------0--0--0--0--0--0-0-0-0-|
D:-5--5-5-5/8-8--8-8--8/10--10-10-10-10--5--5-5-5-5-|


e:------------------|
B:------------------|
G:------------------|
D:---------5----7/9-|
A:-----5h7---7------|
D:-7h9--------------|

e:--------------------------------------------------|
B:-3--3-3-----6--6-6--6------8--8--8--8--3--3-3-3-3-|
G:-0--0-0-----0--0-0--0------0--0--0--0--0--0-0-0-0-|
D:-0--0-0-----0--0-0--0------0--0--0--0--0--0-0-0-0-|
A:-0--0-0-----0--0-0--0------0--0--0--0--0--0-0-0-0-|
D:-5--5-5-5/8-8--8-8--8/10--10-10-10-10--5--5-5-5-5-|

e:------------------|
B:------------------|
G:------------------|
D:---------5----7/9-|
A:-----5h7---7------|
D:-7h9--------------|

e:--------------------------------------------------|
B:-3--3-3-----6--6-6--6------8--8--8--8--3--3-3-3-3-|
G:-0--0-0-----0--0-0--0------0--0--0--0--0--0-0-0-0-|
D:-0--0-0-----0--0-0--0------0--0--0--0--0--0-0-0-0-|
A:-0--0-0-----0--0-0--0------0--0--0--0--0--0-0-0-0-|
D:-5--5-5-5/8-8--8-8--8/10--10-10-10-10--5--5-5-5-5-|

e:---------7-|
B:-------8---|
G:-----7-----|
D:-7h9-------|
A:-----------|
D:-----------|

e:--------------------------------------------------|
B:-3--3-3-----6--6-6--6------8--8--8--8--3--3-3-3-3-|
G:-0--0-0-----0--0-0--0------0--0--0--0--0--0-0-0-0-|
D:-0--0-0-----0--0-0--0------0--0--0--0--0--0-0-0-0-|
A:-0--0-0-----0--0-0--0------0--0--0--0--0--0-0-0-0-|
D:-5--5-5-5/8-8--8-8--8/10--10-10-10-10--5--5-5-5-5-|

e:---------7-|
B:-------8---|
G:-----7-----|
D:-7h9-------|
A:-----------|
D:-----------|

e:--------------------------------------------------|
B:-3--3-3-----6--6-6--6------8--8--8--8--3--3-3-3-3-|
G:-0--0-0-----0--0-0--0------0--0--0--0--0--0-0-0-0-|
D:-0--0-0-----0--0-0--0------0--0--0--0--0--0-0-0-0-|
A:-0--0-0-----0--0-0--0------0--0--0--0--0--0-0-0-0-|
D:-5--5-5-5/8-8--8-8--8/10--10-10-10-10--5--5-5-5-5-|


e:------------------|
B:------------------|
G:------------------|
D:---------5---5----|
A:-----5h7---7---7\-|
D:-7h9--------------|

e:----------------------------|
B:----------------------------|
G:---------12-12--------------|
D:---------------14p12----12--|
A:---------------------14-----|
D:----------------------------|

   gt1
e:--------------------------------------------------|
B:-3--3-3-----6--6-6--6------8--8--8--8--3--3-3-3-3-|
G:-0--0-0-----0--0-0--0------0--0--0--0--0--0-0-0-0-|
D:-0--0-0-----0--0-0--0------0--0--0--0--0--0-0-0-0-|
A:-0--0-0-----0--0-0--0------0--0--0--0--0--0-0-0-0-|
D:-5--5-5-5/8-8--8-8--8/10--10-10-10-10--5--5-5-5-5-|
   gt2
e:---------------------------------------------------|
B:-3--3-3-----6--6-6--6------------------------------|
G:-0--0-0-----0--0-0--0--------12-14----12-14--12~~~-|
D:-0--0-0-----0--0-0--0---8/14-------14--------------|
A:-0--0-0--------------------------------------------|
D:-5--5-5-5/8----------------------------------------|

e:-----------------------|
B:-----------------------|
G:-----------------------|
D:-0--0-0----------------|
A:-0--0-0-------5h7------|
D:-5--5-5---7h9------7h9-|
                                  pm. . 
e:----------------------------------------------|
B:-3--3-3-----6--6-6--6------8--8-----10---8~~~-|
G:-0--0-0-----0--0-0--0------0--0---0----9------|
D:-0--0-0-----0--0-0--0-------------------------|
A:-0--0-0-----0--0-0--0-------------------------|
D:-5--5-5-5/8-8--8-8--8-------------------------|

e:--------------------------------------------------------------------------|
B:-------------------12-----------------------------------------------------|
G:-------------------12------------12-12\-----14bf-14-12-14----12--14-12~~~-|
D:-------12----12h14---------------12-12\-------------------14--------------|
A:-12h14----14---------------10/12------------------------------------------|
D:--------------------------------------------------------------------------|

e:----------------------------------------------------|
B:-3--3-3-----6--6-6--6-------------------------------|
G:-0--0-0-----0--0-0--0---------------12----12--------|
D:-0--0-0-----0--0-0--0---------12h14----14----14~~~~-|
A:-0--0-0-----0-----------12h14-----------------------|
D:-5--5-5-5/8-8---------------------------------------|

e:---------------------------------------------------------------|
B:---------------------------------------------------------------|
G:------------------------------------------7---9-7--------------|
D:---------5----5/9--7-----7-----7---7--7h9---9------5h7-5~~~----|
A:-----5h7---7----------10---7h9---9-----------------------------|
D:-7h9-----------------------------------------------------------|

e:---------------------------------------------------------------|
B:---------------------------------------------------------------|
G:-------------------------------------------------------7-7---7-|
D:--------------5--5-----------5-5----------5-----5--7h9-----9---|
A:-----5h7--3/5----5--5------5-----7-5--5h7---5h7----------------|
D:-7h9-------------5--5--7h9-------------------------------------|

e:-----------------------------------------------------------------|
B:-----10-10-8---8~~~~---------------------------------------------|
G:-7h9-----------------9---7-----------7---------------------------|
D:----------------------------10--9-10---10-9-10-9-7-----------5-7-|
A:----------------------------------------------------10---5-7-----|
D:-----------------------------------------------------------------|

e:------------------------------------------------------------|
B:------------------------------------------------------------|
G:--------7bf--7b~~~--5-4-4h5p4-------------------------------|
D:-5----------------------------7-5------5h7-7h9-5~~~---------|
A:---7-5-----------------------------5h7----------------------|
D:------------------------------------------------------------|

e:-------------|
B:-------------|
G:-------------|
D:---------5---|
A:-----5h7---7-|
D:-7h9---------|

e:--------------------------------------------------|
B:-3--3-3-----6--6-6--6------8--8--8--8--3--3-3-3-3-|
G:-0--0-0-----0--0-0--0------0--0--0--0--0--0-0-0-0-|
D:-0--0-0-----0--0-0--0------0--0--0--0--0--0-0-0-0-|
A:-0--0-0-----0--0-0--0------0--0--0--0--0--0-0-0-0-|
D:-5--5-5-5/8-8--8-8--8/10--10-10-10-10--5--5-5-5-5-|

e:----------------------------------------7-|
B:-3--3-3-----8--8-8--8------------8------8-|
G:-0--0-0-----0--0-0--0----------7---7----7-|
D:-0--0-0-----0--0-0--0------7h9-------9----|
A:------------------------------------------|
D:------------------------------------------|

e:-----------|
B:-----------|
G:-----------|
D:-----------|
A:-----5h7-5-|
D:-7h9-------|

e:------------------------------------------------------------|
B:------------------------------------------------------------|
G:-12~~~~-------14--12-12-12~~~-----14----12~~~~--------------|
D:--------14---------------------------14--------14\----------|
A:------------------------------------------------------------|
D:------------------------------------------------------------|

e:---------|
B:---------|
G:---------|
D:---------|
A:-----5---|
D:-7h9---7-|


e:----12----------------------------------------------------------------|
B:-12----12--13p12-13p12----12------------------------------------------|
G:-----------------------14----14-12-------12-----12-14--12h14p12----12-|
D:-----------------------------------12h14-----14-----------------14----|
A:----------------------------------------------------------------------|
D:----------------------------------------------------------------------|

e:------------------------------------------------------------------|
B:-15b--15b--15b--15-13--12-12--12h13p12----12----------------------|
G:---------------------------------------14----14-12-----12-14-12~~-|
D:----------------------------------------------------14------------|
A:------------------------------------------------------------------|
D:------------------------------------------------------------------|


e:----------------------------------------------------------|
B:-15bf--15--13--12-----------------------------------------|
G:-------------------14--12---------12-14-12----12~~~~------|
D:----------------------------12h14----------14---------14\-|
A:----------------------------------------------------------|
D:----------------------------------------------------------|

e:-------------|
B:-------------|
G:-------------|
D:-------12-14-|
A:-12h14-------|
D:-------------|

e:------------------------------------------------------|
B:-15bf--15--13--12-------------------------------------|
G:-------------------14--12---------12-14-12----12~~~~--|
D:----------------------------12h14----------14---------|
A:------------------------------------------------------|
D:------------------------------------------------------|



now the E standard version of the tab

********* E standard ***********


e:-------------------------------------------------------------|
B:-3--3--3-3--------6-6----------------------------------------|
G:-0--0--0-0--------0-0------8-8-8--10-10-10-10-8--9-9-9-9-----|
D:-0--0--0-0-----0--0-0------8-8-8--10-10-10-10-8--8-8-8-8-----|
A:----0--0-0-----0-------0h6-6-6-6--8--8--8--8--8--8-8-8-8--0--|
E:----3------3/6-6-----------0-0-0--0--0--0--0--0--0-0-0-0-----|


e:----------------------------------------------------------|
B:-3--3-3--------6-6----------------------------------------|
G:-0--0-0--------0-0------8-8-8--10-10-10-10-8--9-9-9-9-----|
D:-0--0-0-----0--0-0------8-8-8--10-10-10-10-8--8-8-8-8-----|
A:-0--0-0-----0-------0h6-6-6-6--8--8--8--8--8--8-8-8-8--0--|
E:-3------3/6-6-----------0-0-0--0--0--0--0--0--0-0-0-0-----|


   last night i didnt sleep well...
e:----------------------------------------------------------|
B:-3--3-3--------6-6----------------------------------------|
G:-0--0-0--------0-0------8-8-8--10-10-10-10-8--9-9-9-9-----|
D:-0--0-0-----0--0-0------8-8-8--10-10-10-10-8--8-8-8-8-----|
A:-0--0-0-----0-------0h6-6-6-6--8--8--8--8--8--8-8-8-8--0--|
E:-3------3/6-6-----------0-0-0--0--0--0--0--0--0-0-0-0-----|


    i cant say that...
e:-------------------------------------------------------------|
B:-------------------------------------------------------------|
G:-8--8-8-----10-10-10-8--9-9-9-0-----------------------8--8-8-|
D:-8--8-8-----10-10-10-8--8-8-8-0-----5-5----------5h7--8--8-8-|
A:-6--6-6--8--8--8--8--8--8-8-8-0--5--5-5------5h7------6--6-6-|
E:---------6--0--0--0--0--0-0-0----3--3-3--5h7-----------------|

e:-------------------------------------------------------|
B:-------------------------------------------------------|
G:-8--8-8-----10-10-10-8--9-9-9-0------------------------|
D:-8--8-8-----10-10-10-8--8-8-8-0-----5-5----------------|
A:-6--6-6--8--8--8--8--8--8-8-8-0--5--5-5------5h7-------|
E:---------6--0--0--0--0--0-0-0----3--3-3--5h7-----5h7p5-|

e:-----------------------------------------------------|
B:-----------------------------------------------------|
G:-8--8-8-----10-10-10-8--9-9-9-0----------------------|
D:-8--8-8-----10-10-10-8--8-8-8-0-----5-5----------5---|
A:-6--6-6--8--8--8--8--8--8-8-8-0--5--5-5------5h7---5-|
E:---------6--0--0--0--0--0-0-0----3--3-3--5h7---------|

e:------------------------------------|
B:------------------------------------|
G:-8--8-8-----10-10-10-8--9-9-9-0-----|
D:-8--8-8-----10-10-10-8--8-8-8-0--5--|
A:-6--6-6--8--8--8--8--8--8-8-8-0--5--|
E:---------6--0--0--0--0--0-0-0----3--|


   last night i didnt sleep well...
e:----------------------------------------------------------|
B:-3--3-3--------6-6----------------------------------------|
G:-0--0-0--------0-0------8-8-8--10-10-10-10-8--9-9-9-9-----|
D:-0--0-0-----0--0-0------8-8-8--10-10-10-10-8--8-8-8-8-----|
A:-0--0-0-----0-------0h6-6-6-6--8--8--8--8--8--8-8-8-8--0--|
E:-3------3/6-6-----------0-0-0--0--0--0--0--0--0-0-0-0-----|

    i cant say that...
e:-------------------------------------------------------------|
B:-------------------------------------------------------------|
G:-8--8-8-----10-10-10-8--9-9-9-0-----------------------8--8-8-|
D:-8--8-8-----10-10-10-8--8-8-8-0-----5-5----------5h7--8--8-8-|
A:-6--6-6--8--8--8--8--8--8-8-8-0--5--5-5------5h7------6--6-6-|
E:---------6--0--0--0--0--0-0-0----3--3-3--5h7-----------------|

e:-------------------------------------------------------|
B:-------------------------------------------------------|
G:-8--8-8-----10-10-10-8--9-9-9-0------------------------|
D:-8--8-8-----10-10-10-8--8-8-8-0-----5-5----------------|
A:-6--6-6--8--8--8--8--8--8-8-8-0--5--5-5------5h7-------|
E:---------6--0--0--0--0--0-0-0----3--3-3--5h7-----5h7p5-|

e:-----------------------------------------------------|
B:-----------------------------------------------------|
G:-8--8-8-----10-10-10-8--9-9-9-0----------------------|
D:-8--8-8-----10-10-10-8--8-8-8-0-----5-5----------5---|
A:-6--6-6--8--8--8--8--8--8-8-8-0--5--5-5------5h7---5-|
E:---------6--0--0--0--0--0-0-0----3--3-3--5h7---------|

e:--------------------------------|
B:--------------------------------|
G:-8--8-8-----10-10-10-8--9-9-9-0-|
D:-8--8-8-----10-10-10-8--8-8-8-0-|
A:-6--6-6--8--8--8--8--8--8-8-8-0-|
E:---------6--0--0--0--0--0-0-0---|

e:---------------------------------------------|
B:-----------8-----8----------6-----6-----6----|
G:-----------9-----9----------7-----7-----7----|
D:-10--10-10-10----10-----8-8-8-----8-----8----|
A:-10--10-10-10-10-10-10--8-8-8--8--8--8--8--8-|
E:-8---8--8-----8-----8---6-6----6-----6-----6-|

e:---------------------------------|
B:---------------------------------|
G:-8--8-8-8--10-10-10-----10-------|
D:-8--8-8-8--10-10-10--10----10--5-|
A:-6--6-6-6--8--8--8-------------5-|
E:-------------------------------3-|

   violin effect
e:---------------------------------------------------|
B:-12--12-12--12\8--8-8--8/16--16-16p15--15-15\13-13-|
G:-0---0--0---0-----0-0--0-----0--0------0--0-----0--|
D:-0---0--0---0-----0-0--0-----0--0------0--0-----0--|
A:---------------------------------------------------|
E:---------------------------------------------------|

e:-------------------------------------------------|
B:-12--12-12--12\8--8-8--8/11--11-11p10--10-10\8-8-|
G:-0---0--0---0-----0-0--0-----0--0------0--0----0-|
D:-0---0--0---0-----0-0--0-----0--0------0--0----0-|
A:-------------------------------------------------|
E:-------------------------------------------------|

  last night found no solution
e:---------------------------------------------------|
B:-12--12-12--12\8--8-8--8/16--16-16p15--15-15\13-13-|
G:-0---0--0---0-----0-0--0-----0--0------0--0-----0--|
D:-0---0--0---0-----0-0--0-----0--0------0--0-----0--|
A:---------------------------------------------------|
E:---------------------------------------------------|

e:-----------------------------------|
B:-12--12-12--12\8--8-8--8/11--11-11-|
G:-0---0--0---0-----0-0--0-----0--0--|
D:-0---0--0---0-----0-0--0-----0--0--|
A:-----------------------------------|
E:-----------------------------------|

   *gt2 under the solo*
e:--------------------------------------------------|
B:-3--3-3-----6--6-6--6------8--8--8--8--3--3-3-3-3-|
G:-0--0-0-----0--0-0--0------0--0--0--0--0--0-0-0-0-|
D:-0--0-0-----0--0-0--0------0--0--0--0--0--0-0-0-0-|
A:-0--0-0-----0--0-0--0------0--0--0--0--0--0-0-0-0-|
E:-3--3-3-3/8-6--6-6--6/8----8--8--8--8--3--3-3-3-3-|

e:----------------------|
B:----------------------|
G:----------------------|
D:---------5---5--------|
A:-----5h7---5----------|
E:-7h9------------------|

  gt2 under the solo  
e:--------------------------------------------------|
B:-3--3-3-----6--6-6--6------8--8--8--8--3--3-3-3-3-|
G:-0--0-0-----0--0-0--0------0--0--0--0--0--0-0-0-0-|
D:-0--0-0-----0--0-0--0------0--0--0--0--0--0-0-0-0-|
A:-0--0-0-----0--0-0--0------0--0--0--0--0--0-0-0-0-|
E:-3--3-3-3/8-6--6-6--6/8----8--8--8--8--3--3-3-3-3-|


e:------------------------|
B:------------------------|
G:------------------------|
D:---------5---5-7/9------|
A:-----5h7---7------------|
E:-5h7--------------------|

e:--------------------------------------------------|
B:-3--3-3-----6--6-6--6------8--8--8--8--3--3-3-3-3-|
G:-0--0-0-----0--0-0--0------0--0--0--0--0--0-0-0-0-|
D:-0--0-0-----0--0-0--0------0--0--0--0--0--0-0-0-0-|
A:-0--0-0-----0--0-0--0------0--0--0--0--0--0-0-0-0-|
E:-3--3-3-3/8-6--6-6--6/8----8--8--8--8--3--3-3-3-3-|


e:------------------------|
B:------------------------|
G:------------------------|
D:---------5---5-7/9------|
A:-----5h7---7------------|
E:-5h7--------------------|


  solo
e:---------------------------9------------------------------|
B:---------------------8---8--------------------------------|
G:-----------------7h9---9-------14bfp12----12----12~~~-----|
D:-7h9--7h9--7---------------------------14----14--------14-|
A:--------------10------------------------------------------|
E:----------------------------------------------------------|

e:-----------------------------------------------------|
B:------------------------------14----12-----12b-------|
G:---------------11b--12-9------14----12-----12b-------|
D:---------5-----------------------14-----14-----14~~~-|
A:-----5h7---7-----------------------------------------|
E:-5h7-------------------------------------------------|

e:----------------------------------------------------------|
B:-------------------------8---8----------------------------|
G:--------12---12----------7---7----------------------------|
D:-2/9-9-----9-----7-----7---7----9------------7------------|
A:-------------------10---------------10-10-10---10-7-10~~~-|
E:----------------------------------------------------------|

e:------------------------------------------------------------------|
B:------------------------------------------------------------------|
G:------------------------------------7h9-7~~-----------------------|
D:---------5---5-7/9------5-------5h7---------9-7--5-7-----5-7--5~~-|
A:-----5h7---7--------5h7---7\5/7----------------------5-7----------|
E:-5h7--------------------------------------------------------------|

   if it times...
  gt1
e:---------------------------------------------------------------|
B:-------8---8------8---8------8---------------------------------|
G:-----7---7------7---7------7---7--------14b-14-12-14----12~~~--|
D:-/9-----------7----------5-------5--5----------------14--------|
A:------------------------------------5--------------------------|
E:------------------------------------3--------------------------|
  gt2
e:--------------------------------------------------|
B:-3--3-3-----6--6-6--6------8--8--8--8--3--3-3-3-3-|
G:-0--0-0-----0--0-0--0------0--0--0--0--0--0-0-0-0-|
D:-0--0-0-----0--0-0--0------0--0--0--0--0--0-0-0-0-|
A:-0--0-0-----0--0-0--0------0--0--0--0--0--0-0-0-0-|
E:-3--3-3-3/8-6--6-6--6/8----8--8--8--8--3--3-3-3-3-|

  gt1
e:---------------------------------------------------------------------|
B:-------8---8------8---8------8---------------------------------------|
G:-----7---7------7---7------7---7-----------------12------------------|
D:-/9-----------7----------5-------5--5---------12----12---------------|
A:------------------------------------5---12h14----------12-14--10~~~~-|
E:------------------------------------3--------------------------------|
  gt2
e:--------------------------------------------------|
B:-3--3-3-----6--6-6--6------8--8--8--8--3--3-3-3-3-|
G:-0--0-0-----0--0-0--0------0--0--0--0--0--0-0-0-0-|
D:-0--0-0-----0--0-0--0------0--0--0--0--0--0-0-0-0-|
A:-0--0-0-----0--0-0--0------0--0--0--0--0--0-0-0-0-|
E:-3--3-3-3/8-6--6-6--6/8----8--8--8--8--3--3-3-3-3-|

  gt1                                    pm...............
e:------------------------------------------------------------|
B:-------8---8------8---8------8------------------------------|
G:-----7---7------7---7------7---7----------------------------|
D:-/9-----------7----------5-------5--5----------5-7-5---5~~~-|
A:------------------------------------5------5-7-------7------|
E:------------------------------------5----7------------------|
  gt2
e:--------------------------------------------------|
B:-3--3-3-----6--6-6--6------8--8--8--8--3--3-3-3-3-|
G:-0--0-0-----0--0-0--0------0--0--0--0--0--0-0-0-0-|
D:-0--0-0-----0--0-0--0------0--0--0--0--0--0-0-0-0-|
A:-0--0-0-----0--0-0--0------0--0--0--0--0--0-0-0-0-|
E:-3--3-3-3/8-6--6-6--6/8----8--8--8--8--3--3-3-3-3-|

   gt1
e:---------------------------------------------------------------|
B:-------8---8------8---8------8---------------------------------|
G:-----7---7------7---7------7---7---------------------12-12~~~~-|
D:-/9-----------7----------5-------5--5----------12h14-----------|
A:------------------------------------5----12h14-----------------|
E:------------------------------------3--------------------------|
   gt2
e:--------------------------------------------------|
B:-3--3-3-----6--6-6--6------8--8--8--8--3--3-3-3-3-|
G:-0--0-0-----0--0-0--0------0--0--0--0--0--0-0-0-0-|
D:-0--0-0-----0--0-0--0------0--0--0--0--0--0-0-0-0-|
A:-0--0-0-----0--0-0--0------0--0--0--0--0--0-0-0-0-|
E:-3--3-3-3/8-6--6-6--6/8----8--8--8--8--3--3-3-3-3-|


                                                  x2
e:--------------------------------------------------|
B:-3--3-3-----6--6-6--6------8--8--8--8--3--3-3-3-3-|
G:-0--0-0-----0--0-0--0------0--0--0--0--0--0-0-0-0-|
D:-0--0-0-----0--0-0--0------0--0--0--0--0--0-0-0-0-|
A:-0--0-0-----0--0-0--0------0--0--0--0--0--0-0-0-0-|
E:-3--3-3-3/8-6--6-6--6/8----8--8--8--8--3--3-3-3-3-|


e:------------------|
B:------------------|
G:------------------|
D:---------5----7/9-|
A:-----5h7---7------|
E:-5h7--------------|

e:--------------------------------------------------|
B:-3--3-3-----6--6-6--6------8--8--8--8--3--3-3-3-3-|
G:-0--0-0-----0--0-0--0------0--0--0--0--0--0-0-0-0-|
D:-0--0-0-----0--0-0--0------0--0--0--0--0--0-0-0-0-|
A:-0--0-0-----0--0-0--0------0--0--0--0--0--0-0-0-0-|
E:-3--3-3-3/8-6--6-6--6/8----8--8--8--8--3--3-3-3-3-|

e:------------------|
B:------------------|
G:------------------|
D:---------5----7/9-|
A:-----5h7---7------|
E:-5h7--------------|

e:--------------------------------------------------|
B:-3--3-3-----6--6-6--6------8--8--8--8--3--3-3-3-3-|
G:-0--0-0-----0--0-0--0------0--0--0--0--0--0-0-0-0-|
D:-0--0-0-----0--0-0--0------0--0--0--0--0--0-0-0-0-|
A:-0--0-0-----0--0-0--0------0--0--0--0--0--0-0-0-0-|
E:-3--3-3-3/8-6--6-6--6/8----8--8--8--8--3--3-3-3-3-|

e:---------7-|
B:-------8---|
G:-----7-----|
D:-7h9-------|
A:-----------|
E:-----------|

e:--------------------------------------------------|
B:-3--3-3-----6--6-6--6------8--8--8--8--3--3-3-3-3-|
G:-0--0-0-----0--0-0--0------0--0--0--0--0--0-0-0-0-|
D:-0--0-0-----0--0-0--0------0--0--0--0--0--0-0-0-0-|
A:-0--0-0-----0--0-0--0------0--0--0--0--0--0-0-0-0-|
E:-3--3-3-3/8-6--6-6--6/8----8--8--8--8--3--3-3-3-3-|

e:---------7-|
B:-------8---|
G:-----7-----|
D:-7h9-------|
A:-----------|
E:-----------|

e:--------------------------------------------------|
B:-3--3-3-----6--6-6--6------8--8--8--8--3--3-3-3-3-|
G:-0--0-0-----0--0-0--0------0--0--0--0--0--0-0-0-0-|
D:-0--0-0-----0--0-0--0------0--0--0--0--0--0-0-0-0-|
A:-0--0-0-----0--0-0--0------0--0--0--0--0--0-0-0-0-|
E:-3--3-3-3/8-6--6-6--6/8----8--8--8--8--3--3-3-3-3-|

e:------------------|
B:------------------|
G:------------------|
D:---------5---5----|
A:-----5h7---7---7\-|
D:-5h7--------------|

e:----------------------------|
B:----------------------------|
G:---------12-12--------------|
D:---------------14p12----12--|
A:---------------------14-----|
E:----------------------------|

   gt1
e:--------------------------------------------------|
B:-3--3-3-----6--6-6--6------8--8--8--8--3--3-3-3-3-|
G:-0--0-0-----0--0-0--0------0--0--0--0--0--0-0-0-0-|
D:-0--0-0-----0--0-0--0------0--0--0--0--0--0-0-0-0-|
A:-0--0-0-----0--0-0--0------0--0--0--0--0--0-0-0-0-|
E:-3--3-3-3/8-6--6-6--6/8----8--8--8--8--3--3-3-3-3-|
   gt2
e:---------------------------------------------------|
B:-3--3-3-----6--6-6--6------------------------------|
G:-0--0-0-----0--0-0--0--------12-14----12-14--12~~~-|
D:-0--0-0-----0--0-0--0---8/14-------14--------------|
A:-0--0-0--------------------------------------------|
E:-3--3-3-3/6----------------------------------------|

e:-----------------------|
B:-----------------------|
G:-----------------------|
D:-0--0-0----------------|
A:-0--0-0-------5h7------|
E:-3--3-3---5h7------5h7-|
                                  pm. . 
e:----------------------------------------------|
B:-3--3-3-----6--6-6--6------8--8-----10---8~~~-|
G:-0--0-0-----0--0-0--0------0--0---0----9------|
D:-0--0-0-----0--0-0--0-------------------------|
A:-0--0-0-----0--0-0--0-------------------------|
E:-3--3-3-3/6-6--6-6--6-------------------------|

e:--------------------------------------------------------------------------|
B:-------------------12-----------------------------------------------------|
G:-------------------12------------12-12\-----14bf-14-12-14----12--14-12~~~-|
D:-------12----12h14---------------12-12\-------------------14--------------|
A:-12h14----14---------------10/12------------------------------------------|
E:--------------------------------------------------------------------------|

e:----------------------------------------------------|
B:-3--3-3-----6--6-6--6-------------------------------|
G:-0--0-0-----0--0-0--0---------------12----12--------|
D:-0--0-0-----0--0-0--0---------12h14----14----14~~~~-|
A:-0--0-0-----0-----------12h14-----------------------|
E:-3--3-3-3/6-6---------------------------------------|

e:---------------------------------------------------------------|
B:---------------------------------------------------------------|
G:------------------------------------------7---9-7--------------|
D:---------5----5/9--7-----7-----7---7--7h9---9------5h7-5~~~----|
A:-----5h7---7----------10---7h9---9-----------------------------|
D:-5h7-----------------------------------------------------------|

e:---------------------------------------------------------------|
B:---------------------------------------------------------------|
G:-------------------------------------------------------7-7---7-|
D:--------------5--5-----------5-5----------5-----5--7h9-----9---|
A:-----5h7--3/5----5--5------5-----7-5--5h7---5h7----------------|
D:-5h7-------------3--3--5h7-------------------------------------|

e:-----------------------------------------------------------------|
B:-----10-10-8---8~~~~---------------------------------------------|
G:-7h9-----------------9---7-----------7---------------------------|
D:----------------------------10--9-10---10-9-10-9-7-----------5-7-|
A:----------------------------------------------------10---5-7-----|
D:-----------------------------------------------------------------|

e:------------------------------------------------------------|
B:------------------------------------------------------------|
G:--------7bf--7b~~~--5-4-4h5p4-------------------------------|
D:-5----------------------------7-5------5h7-7h9-5~~~---------|
A:---7-5-----------------------------5h7----------------------|
E:------------------------------------------------------------|

e:-------------|
B:-------------|
G:-------------|
D:---------5---|
A:-----5h7---7-|
E:-5h7---------|

e:--------------------------------------------------|
B:-3--3-3-----6--6-6--6------8--8--8--8--3--3-3-3-3-|
G:-0--0-0-----0--0-0--0------0--0--0--0--0--0-0-0-0-|
D:-0--0-0-----0--0-0--0------0--0--0--0--0--0-0-0-0-|
A:-0--0-0-----0--0-0--0------0--0--0--0--0--0-0-0-0-|
E:-3--3-3-3/8-6--6-6--6/8----8--8--8--8--3--3-3-3-3-|

e:----------------------------------------7-|
B:-3--3-3-----8--8-8--8------------8------8-|
G:-0--0-0-----0--0-0--0----------7---7----7-|
D:-0--0-0-----0--0-0--0------7h9-------9----|
A:------------------------------------------|
E:------------------------------------------|

e:-----------|
B:-----------|
G:-----------|
D:-----------|
A:-----5h7-5-|
E:-5h7-------|

e:------------------------------------------------------------|
B:------------------------------------------------------------|
G:-12~~~~-------14--12-12-12~~~-----14----12~~~~--------------|
D:--------14---------------------------14--------14\----------|
A:------------------------------------------------------------|
E:------------------------------------------------------------|

e:---------|
B:---------|
G:---------|
D:---------|
A:-----5---|
E:-5h7---7-|


e:----12----------------------------------------------------------------|
B:-12----12--13p12-13p12----12------------------------------------------|
G:-----------------------14----14-12-------12-----12-14--12h14p12----12-|
D:-----------------------------------12h14-----14-----------------14----|
A:----------------------------------------------------------------------|
E:----------------------------------------------------------------------|

e:------------------------------------------------------------------|
B:-15b--15b--15b--15-13--12-12--12h13p12----12----------------------|
G:---------------------------------------14----14-12-----12-14-12~~-|
D:----------------------------------------------------14------------|
A:------------------------------------------------------------------|
E:------------------------------------------------------------------|


e:----------------------------------------------------------|
B:-15bf--15--13--12-----------------------------------------|
G:-------------------14--12---------12-14-12----12~~~~------|
D:----------------------------12h14----------14---------14\-|
A:----------------------------------------------------------|
E:----------------------------------------------------------|

e:-------------|
B:-------------|
G:-------------|
D:-------12-14-|
A:-12h14-------|
E:-------------|

e:------------------------------------------------------|
B:-15bf--15--13--12-------------------------------------|
G:-------------------14--12---------12-14-12----12~~~~--|
D:----------------------------12h14----------14---------|
A:------------------------------------------------------|
E:------------------------------------------------------|



http://www.blinddog.se/                         website

http://www.youtube.com/watch?v=l5WGpg-gLlE      song

http://www.myspace.com/blinddog666              myspace

http://www.blinddog.se/videos.php               videos

http://www.last.fm/music/Blind+Dog/_/Save+You+From+Yourself




hillo son mex

24/11/12
Добавлено: 23.09.2013
Другие материалы по этой песне:
  • Аккорды и текст

Страница создана 23.09.2013
http://primanota.ru/blind-dog/save-you-from-yourself-chords.htm
Привет, Гость.
Предлагаем пройти революционный курс по гитаре.
Подарок от PrimaNota.Ru, забирай!