PrimaNota.ru - самый крупный в мире бесплатный архив песенных текстов, аккордов, табулатур и нот


Blind Blake - Blakes Breakdown - таба, видео

Регистрация Запомнить меня
Войти через:  Facebook Google Twitter Vk Yandex Mail.ru

Blind Blake - Blakes Breakdown - таба, видео

Печатать
Просмотров: 67
This is one of my favourite ragtime guitar arrangements to play. It was written by
Blind Blake. The whole thing is travis picked except for a few thumb rolls. 
Let me know what you think. www.mp3.com/jeremyjwoodland

Blakes Breakdown
By: Blind Blake

A Section
G                 
---3------1-----------|--------0---3-------0-------|
----------------------|--0--3----------------------|
------------------3---|----------------------------|
------0-------0-------|--------0---------------0---|
----------------------|----------------------------| 
---3------3-----------|--3-------------3-----------|

C
-------0------0-------|--0-------0-----------------|
----------4--------1--|------4---------1-----------|
----------------------|----------------------------|
-------2-----------2--|----------2---------2-------|
--3-----------3-------|--3-------------3-----------|
----------------------|----------------------------|

E
----------0-----------|------------0---------------|
----------------3-----|--------------------3-------|
---0/1----------------|--0/1-----------------------|
-------2-----------2--|--------2---------------2---|
----------------------|----------------------------| 
---0---------0--------|--0------------0------------|

F
-1------------1-------|---1----------1-------------|
-1------1-------------|---1----------1-------------|
-2--------------------|---2----------2-------------|
-3---3-----------3----|---3----3-----3-------3-----|
-3--------------------|---3----------3-------------|
-1---------1----------|---1----------1-------------|

                         Ab7
-1-------------1------|--2--------2----------------|
-1------1-------------|--1--------1----------------|
-2--------------------|--1----1---1------1---------|
-3---3----------------|--1--------1----------------|
-3----------------3---|----------------------------|
-1---------1----------|----------------------------|

C                        D7
----------------------|-------2----0---2-----------|
--1-------------------|-------1----1---------------|
------0-----0------0--|-------2----2---------------|
----2-----0------0----|-------0------------0-------|
--3-----2------1------|--0---------0---------------|
----------------------|----------------------------|

G7                       Ab7                  C
-1--1------0----------|----------------------------||
-0--0-----------3-----|---------1------1--1----1---||
----------------------|------1-----1---1--1----0---||
-------0-----------0--|----------------1--1----2---||
----------------------|---3------------3--3----3---||
-3-----------3--------|----------------------------||


B Section
G7
----------------------|----------------------------|
--8-------------8-----|---8---8--7--6--------------|
--------10------------|----------------------------|
-----9-------------9--|----------------------------|
-10---------10--------|--10--10--9--8--------------|
----------------------|----------------------------|

E7
----------------------|----------------------------|
--5--------------5----|--5--------------5----------|
----------7-----------|----------7-----------------|
------6-------------6-|------6--------------6------|
--7----------7--------|--7-----------7-------------|
----------------------|----------------------------|

A                        pull
----------------------|----------------------------|
-5-------------5------|--7\5--------------5--------|
---------6------------|-----------6----------------|
-----7------------7---|--------7--------------7----|
-0----------0---------|--0------------0------------|
----------------------|----------------------------|

E7
----------------------|----------------------------|
--5--------------5----|--5--------------5----------|
----------7-----------|----------7-----------------|
------6-------------6-|------6--------------6------|
--7----------7--------|--7-----------7-------------|
----------------------|----------------------------|

A                        pull
----------------------|----------------------------|
-5-------------5------|--7\5--------------5--------|
---------6------------|-----------6----------------|
-----7------------7---|--------7--------------7----|
-0----------0---------|--0------------0------------|
----------------------|----------------------------|

D7
------2---0--2--------|
------1---1-----------|
------2---2-----------|
------0----------0----|
--0-------0-----------|
----------------------|

G7                       Ab7                  C
-1--1------0----------|----------------------------||
-0--0-----------3-----|---------1------1--1----1---||
----------------------|------1-----1---1--1----0---||
-------0-----------0--|----------------1--1----2---||
----------------------|---3------------3--3----3---||
-3-----------3--------|----------------------------||Back To A

     
Добавлено: 16.11.2013
Другие материалы по этой песне:

Страница создана 19.05.2012
http://primanota.ru/blind-blake/blakes-breakdown-chords.htm
Привет, Гость.
Предлагаем пройти революционный курс по гитаре.
Подарок от PrimaNota.Ru, забирай!