PrimaNota.ru - самый крупный в мире бесплатный архив песенных текстов, аккордов, табулатур и нот


BLØF - Hier - аккорды и текст, видео

Регистрация Запомнить меня
Войти через:  Facebook Google Twitter Vk Yandex Mail.ru

BLØF - Hier - аккорды и текст, видео

Печатать
Просмотров: 44
Hier
BLØF
Titel          : Aan de Kust
Artiest        : Blof
Tekst & Muziek : Peter Slager
Getabt door    : Sander Filius (blof@pagina.nl)

Deze gitaarakkoorden zijn voor de gitaaruitvoering van "Aan de Kust",
zoals deze verschenen is als extra nummer op "Helder" en als single.


AKKOORDEN:
G5    320033     C     X32010     DII   XXX775
Em7   X22033     Cadd9 X32033     Bm    X24432
Bm7/A X24235     D     XX0232     Cm    X35543
Am    X02210     CII   XXX553

 1 INTRO & COUPLET A)
    G5           Em7          Bm7/A
 E--3----3--3-3--3----3--3-3------5--5------5--5--5--5-|
 B--3----3--3-3--3----3--3-3--2h3----3--2h3----3--3--3-|
 G--0----0--0-0--0----0--0-0--2------2--2------2--2--2-|
 D--0----0--0-0--2----2--2-2--4---------4------4--4--4-|
 A---------------2----2--2-2--2---------2------2-----2-|
 E-----------------------------------------------------|
 "Zoute zee slaakt een diepe zilte zucht" enz.
 De minder bedreven gitaristen, kunnen ook gewoon G5-Em7-Bm spelen.


 2 COUPLET B)
      Am                   Am  C     G5
 E--0--------------------0-----0-----3-----------------|
 B--0h1------------------0h1---1-----3-----------------|
 G--0h2------------------0h2---0-----0-----------------|
 D--0h2------------------0h2---2-----0-----------------|
 A--0--------------------0-----3-----2-----------------|
 E-----------------------------------3-----------------|
 "Maar men weet het niet."

    Cadd9                        D    D    D           CII  CII  DII
 E--3----------------------------2----2----2-3----3----3----3----5--|
 B--3----------------------------3----3----3-3----3----5----5----7--|
 G--0----------------------------2----2----2-2----2----5----5----7--|
 D--2----------------------------0----0----0-0----0-----------------|
 A--3---------------------------------------------------------------|
 E------------------------------------------------------------------|
 "En zwijgt van wat men hoort en ziet."


 3 REFREIN)
              G5       Em7     Bm
 "Hier aan de kust, de Zeeuwse kust."

          G5          D          Em7   D       Cadd9
 "Waar de mensen onbewust zin in mosselfeesten krijgen."

         Em7  D           Cadd9          Em7      D  Cadd9
 "En van eten slechts nog zwijgen als ze zat zijn en voldaan."

 Am        C             Cadd9
 "Dan weer rustig slapen gaan."


 4 BRUG)
 Tussen de laatste 2 refreinen zit een opbouwende drumroffel, welke te
 ondersteunen is door een Cm te spelen.


TEKST:

De zoute zee slaakt een diepe zilte zucht.
Boven het vlakke land trilt stil de warme lucht.
He! Iemand slaat soms onverwacht maar zeker op de vlucht.
Alarmfase Twee is hier nauwelijks nog berucht.
Maar men weet het niet.
En zwijgt van wat men hoort en ziet.

Hier aan de kust, de Zeeuwse kust.
Waar de mensen onbewust
zin in mosselfeesten krijgen.
En van eten slechts nog zwijgen
als ze zat zijn en voldaan.
En weer rustig slapen gaan.

Hier aan de kust, de Zeeuwse kust.
Waar eenieder onbewust
in het Duits wordt aangesproken.
Waar de ketting is gebroken
en alle schepen zijn verbrand.
Maar er is niets aan de hand.

Vlissingen ademt zwaar en moedeloos vannacht.
De haven is verlaten, want er is nog maar een vracht.
En die moet in het donker buitengaats worden gebracht.
Gedenk de goede tijden van zuiverheid en kracht.
Maar men weet het niet.
En zwijgt van wat men hoort en ziet.

Hier aan de kust, de Zeeuwse kust.
Waar de zomer onbewust
met een rotgang wordt genoten.
En waar wild en onverdroten
iedereen zijn gang kan gaan.
Tot men zat is en voldaan.

Hier aan de kust, de Zeeuwse kust.
Waar de liefde van de lust
steeds maar weer zal gaan verliezen.
Omdat ze nooit kan kiezen
tussen goed en niet zo kwaad.
Maar dat is zoals het gaat.

Hier aan de kust.
Добавлено: 05.04.2016
Другие материалы по этой песне:
  • Аккорды и текст

Страница создана 05.04.2016
http://primanota.ru/blf/hier-chords.htm
Привет, Гость.
Предлагаем пройти революционный курс по гитаре.
Подарок от PrimaNota.Ru, забирай!