PrimaNota.ru - самый крупный в мире бесплатный архив песенных текстов, аккордов, табулатур и нот


BLØF - Dichterbij Dan Ooit - бас-таба, видео

Регистрация Запомнить меня
Войти через:  Facebook Google Twitter Vk Yandex Mail.ru

BLØF - Dichterbij Dan Ooit - бас-таба, видео

Печатать
Просмотров: 63
---------------------------------------------------------------------------
                     DICHTERBIJ DAN OOIT - Bløf
---------------------------------------------------------------------------

Tuning: standard 4-string (EADG)
Tabbed By: Hurm
Note: play staccato notes in verses and outro

Intro
G|(0:00)--------------------------|
D|--------------------------------|
A|------7---------------7-----7744|
E|555555-555555555555555-55555----|

Verse 1
G|(0:09)--------------------------|
D|--------------------------------|
A|44444444------------------------|
E|--------555555552222222244444444|

G|--------------------------------|
D|--------------------------------|
A|44444444------------------------|
E|--------555555552222222244444424|

G|(0:27)--------------------------|
D|--------------------------------|
A|----------------44444422--------|
E|5555555577777777--------44444424|

G|(0:35)--------------------------|
D|--------------------------------|
A|----------779977-----------44---|
E|5555555555------77777775444--774|

Chorus 1
G|(0:44)--------------------------|
D|--------------------------------|
A|-------24444442---------------24|
E|0000004--------544444444444424--|

G|------------------------------------------------|
D|------------2-2------------------------------2--|
A|-------24444-4-2----------------------------4--2|
E|0000004---------4444444444444444555555555555--4-|

Verse 2 (same as verse 1)

Chorus 2
G|(1:40)--------------------------|
D|--------------------------------|
A|-------244444422----------------|
E|0000004---------4444444444444422|

G|------------------------------------------------|
D|------------2-2---------------------------------|
A|-------24444-4-2--------------------------------|
E|0000000---------44444444444444445555555555557777|

Bridge 1
G|(2:01)------------------------------------------|
D|------------------------------------------------|
A|------------2-4-----------------------------77--|
E|000000000004-4-45555555555557777000000000000--99|

Verse 3
G|(2:14)--------------------------|
D|--------------------------------|
A|---------------/999\----------2-|
E|\\-----------------22222444444-4|

G|--------------------------------|
D|--------------------------------|
A|44444444------------------------|
E|--------555555552222222244444444|

G|--------------------------------|
D|----------------------^^--------|
A|----------------44444444--------|
E|5555555577777777--------44444424|

G|--------------------------------|
D|--------------------------------|
A|----------779977-----------44---|
E|5555555555------77777775444--774|

Chorus 3
G|(2:48)--------------------------|
D|--------------------------------|
A|-------244444422------------24--|
E|0000004---------444444444444--42|

G|--------------------------------|
D|------------2-2-----------------|
A|-------24444-4-2------------24--|
E|0000004---------444444444444--42|

G|(3:05)--------------------------|
D|--------------------------------|
A|-------244444422--------------2-|
E|0000004---------44444444444424-4|

G|------------------------------------------------|
D|------------2-2---------------------------------|
A|-------24444-4-2--------------------------------|
E|0000004---------44444444444444445555555555557777|

Bridge 2
G|(3:26)--------------------------|
D|--------------------------------|
A|------------02------------------|
E|000000000004--405555555555557777|

G|--------------------------------|
D|--------------------------------|
A|--------77664422------------7722|
E|0000000--------4555555555555----|

Outro
G|(3:44)--------------------------|
D|--------------------------------|
A|44444442----------------77776644|
E|--------5555555522222222--------|

G|-66\----------------------------|
D|--------------------------------|
A|4--44442----------------77776644|
E|--------5555555522222222--------|

G|--------------------------------|
D|----------------------------669-|
A|44444442----------------7777---9|
E|--------5555555522222222--------|

G|--------------------------------|----|
D|--------------------------------|----|
A|44444442----------------77776644|444-|
E|--------5555555522222222--------|----|

| /  slide up
| \  slide down

===========================================================================
Добавлено: 14.02.2016
Другие материалы по этой песне:
  • Аккорды и текст

Страница создана 14.02.2016
http://primanota.ru/blf/dichterbij-dan-ooit-chords.htm
Привет, Гость.
Предлагаем пройти революционный курс по гитаре.
Подарок от PrimaNota.Ru, забирай!