PrimaNota.ru - самый крупный в мире бесплатный архив песенных текстов, аккордов, табулатур и нот


Blessthefall - Whats Left Of Me - текст песни, таба, бас-таба, видео

Регистрация Запомнить меня
Войти через:  Facebook Google Twitter Vk Yandex Mail.ru

Blessthefall - Whats Left Of Me - текст песни, таба, бас-таба, видео

Печатать
Просмотров: 251
-------------------------------------------------------------------------------
                             What's left of me - Blessthefall
-------------------------------------------------------------------------------
Tabbed by:screamo_core
Email:pansy_screamo@hotmail.com

Tuning:Drop D

Again  tabbed right after they released it. ha. this is my second  
tab. check out my other one god wears gucci. will try to tab the whole
album when its released.contains 2 guitars. Rate please

  Guitar 1: Eric
  (0:00-0:11)
e|---------------------------------------------------------------------------|
B|---------------------------------------------------------------------------|
G|---------------------------------------------------------------------------|
D|---------------------------------------------------------------------------|
A|---------------------------------------------------------------------------|
D|----some string scratching---or feedback-----------------------------------|

   Intro:(0:12-0:23) 
e|---------------------------------------------------------|
B|---------------------------------------------------------|
G|---------------------------------------------------------|
D|--------------------------------------------------X2-----|
A|-0-00000-00-00000-88888888-5555555555--------------------|
D|-0-00000-00-00000-88888888-5555555555--------------------|
   . ..... .. ..... ........ ..........

   Verse:(0:24-0:40) not 100% sure about hammers and pulls but sure about 13/1
e|--------------------------------------------------------------------| slide
B|---a lot of times----------------------------------------13/1-------|
G|---777777777----------5p0h8p0h7p0h8p0h11p0h10p0h13p0h12-------------|
D|---XXXXXXXXX--------------------------------------------------------|
A|---555555555--------------------------------------------------------|
E|--------------------------------------------------------------------|

   Chorus:(0:41-1:04)
e|----------------------------------------|
B|----------------------------------------|
G|---------------1414141414/12\141414-----|
D|--00000000000--X-X-X-X-X--X--X-X-X--X2--|
A|--00000000000--1212121212/10\121212-----|
D|--00000000000---------------------------|

    Breakdown:(1:05-1:17)
e|------------|--------------------------------------------------------|
B|------------|--------------------------------------------------------|
G|------------|--------------------------------------------------------|
D|------------|-------------------------------------------------X2-----|
A|-00-0000-00-|0-00000-00-00000-88888888-5555555555--------------------|
D|-00-0000-00-|0-00000-00-00000-88888888-5555555555--------------------|
   .. .... ..  . ..... .. ..... ........ ..........

   Verse: (1:05-1:17)
e|--------------------------------------------------------------------| 
B|---a lot of times-----------------------------7p0h9p0h11-13/1-------|
G|---777777777----------5p0h8p0h7p0h8p0h11p0h10-----------------------|
D|---XXXXXXXXX--------------------------------------------------------|
A|---555555555--------------------------------------------------------|
E|--------------------------------------------------------------------|

  Chorus(1:18-1:34)
e|----------------------------------------|
B|----------------------------------------|
G|---------------1414141414/12\141414-----|
D|--00000000000--X-X-X-X-X--X--X-X-X--X2--|
A|--00000000000--1212121212/10\121212-----|
D|--00000000000---------------------------|

Interlude:(1:59-2:48)                                          the second time
e|---------------------------------17--17--13--13--12--12----|17--17--13--13--15--15--|
B|-----------------------------------15--15--15--15--15--15--|--15--15--15--15--15--15|
G|--------333b333r---333b333r--------------------------------|------------------------|
D|-0~-------------------------------this part is so great----|------------------------|
A|-0~-----------------------------------repeat --------------|------------------------|
D|-0~--------------------------------------------------------|------------------------|
                                        keep repeating those two back and forth



  ???:(2:49-3:13) 100%%% 
e|-----------------------------------------------|
B|-----------------------------------------------|
G|-----------------------------------------------|
D|-0000000-10101010101010-333333333-88888888-----|X2
A|-0000000-10101010101010-333333333-88888888-----|
D|-0000000-10101010101010-333333333-88888888-----|



   Outro:(3:14-till end)
e|---------------------------------------------------------|
B|---------------------------------------------------------|
G|---------------------------------------------------------|
D|------------------------------------------X2--0----------|
A|-0-00000-00-00000-88888888-5555555555---------0----------|
D|-0-00000-00-00000-88888888-5555555555---------0----------|
   . ..... .. ..... ........ ..........


__________________________________________________________________________________________________

 Guitar 2: Mike
  (0:00-0:11)
e|---------------------------------------------------------------------------|
B|---------------------------------------------------------------------------|
G|---------------------------------------------------------------------------|
D|---------------------------------------------------------------------------|
A|---------------------------------------------------------------------------|
D|----some string scratching---or feedback-----------------------------------|

   Intro:(0:12-0:23) 
e|---------------------------------------------------------|
B|---------------------------------------------------------|
G|---------------------------------------------------------|
D|--------------------------------------------------X2-----|
A|-0-00000-00-00000-88888888-5555555555--------------------|
D|-0-00000-00-00000-88888888-5555555555--------------------|
   . ..... .. ..... ........ ..........

    Verse:(0:24-0:40)
e|------------------------------------------------------------------|
B|--continues with same chords-----------------  10's---------------|
G|--but changes to a little bit more--------------------------------|
D|--------faster-X2-and then this----------------------------10-----|
A|--------------------------------------88888888-10101010101010-----|
D|--------------------------------------88888888-10101010101010-----|
                                        ........ ............  

    Chorus:(0:41-1:04)
e|------------------------------------------|
B|------------------------------------------|
G|------------------------------------------| X2
D|-00000000000-888888888888-5555555555555---| 
A|-00000000000-888888888888-5555555555555---|
E|-00000000000-888888888888-5555555555555---|
  
  Breakdown:(1:05-1:17)
e|------------|--------------------------------------------------------|
B|------------|--------------------------------------------------------|
G|------------|--------------------------------------------------------|
D|-----wait---|-------------------------------------------------X2-----|
A|------------|0-00000-00-00000-88888888-5555555555--------------------|
D|------------|0-00000-00-00000-88888888-5555555555--------------------|
               . ..... .. ..... ........ ..........

   Verse:(1:18-1:34)
e|------------------------------------------------------------------|
B|--continues with same chords-----------------  10's---------------|
G|--but changes to a little bit more--------------------------------|
D|--------faster-X2-and then this----------------------------10-----|
A|--------------------------------------88888888-10101010101010-----|
D|--------------------------------------88888888-10101010101010-----|
                                        ........ ............  
                                         
    Chorus:(1:35-1:58)
e|------------------------------------------|
B|------------------------------------------|
G|------------------------------------------| X2
D|-00000000000-888888888888-5555555555555---| 
A|-00000000000-888888888888-5555555555555---|
E|-00000000000-888888888888-5555555555555---|


   Interlude:(1:59-2:48)
e|---------------------------------------------------------------------|
B|--------------------------------let string or strum... they strum----|
G|------------------------------------live so you can do that----------|
D|--0~--------------------------0~-10~-3~-8~-0~-10~-3~-8~-0~-----------|
A|--0~--5-555-5555-555----------0~-10~-3~-8~-0~-10~-3~-8~-0~-----------|
D|--0~--5-555-5555-555----------0~-10~-3~-8~-0~-10~-3~-8~-0~-----------|

  ???:(2:49-3:13)                                       bend only the last time
e|---------------------------------------------------------------------------------------|
B|-------------------------18181818/1717171717-------------------------------------------|
G|-1414141414/12\141414/12\X-X-X-X--X-X-X-X-X----1414141414/12\14141414/12\17171717b-----|
D|-X-X-X-X-X--X--X-X-X--XX-15151515/1414141414---X-X-X-X-X--X--X-X-X-X--X--X-X-X-X----X2-|
A|-1212121212/10\121212/10\----------------------1212121212/10\12121212/10\15151515b-----|
D|---------------------------------------------------------------------------------------|


   Outro:(3:14-till end)
e|---------------------------------------------------------|
B|---------------------------------------------------------|
G|---------------------------------------------------------|
D|------------------------------------------X2--0----------|
A|-0-00000-00-00000-88888888-5555555555---------0----------|
D|-0-00000-00-00000-88888888-5555555555---------0----------|
   . ..... .. ..... ........ ..........
updated tab 
on interlude of both guitars; and on mike's guitar the fast part
(2:49-3:13)

| /  slide up
| \  slide down
| h  hammer-on
| p  pull-off
| ~  vibrato
| +  harmonic
| x  Mute note
| b bend
| r release
===============================================================================
Добавлено: 03.07.2012
Другие материалы по этой песне:

Страница создана 23.03.2012
http://primanota.ru/blessthefall/whats-left-of-me-chords.htm
Привет, Гость.
Предлагаем пройти революционный курс по гитаре.
Подарок от PrimaNota.Ru, забирай!