PrimaNota.ru - самый крупный в мире бесплатный архив песенных текстов, аккордов, табулатур и нот


Blessthefall - Waiting For Tomorrow - таба, видео

Регистрация Запомнить меня
Войти через:  Facebook Google Twitter Vk Yandex Mail.ru

Blessthefall - Waiting For Tomorrow - таба, видео

Печатать
Просмотров: 203
Уроки эстрадного вокала в Санкт-Петербурге
Not 100%, comment for questions


Intro
e|---------------------------------------------------------------------------|
B|---------------------------------------------------------------------------|
G|-------------13-13---------11-11---------9-9---------13-13-14-13--16-14-13-|
D|------11-11-----------9-9-----------7-7--------11-11-----------14----------|
A|7/9-9-------------7-7-----------5-5---------9-9----------------------------|
E|---------------------------------------------------------------------------|

e|--------------------------------------------------------------------|
B|--------------------------------------------------------------------|
G|-------9-9--------11-11---------13-13-14-13---16-14-13--------------|x3
D|---7-7---------9-9---------11-11------------14----------------------|
A|5-5---------7-7---------9-9-----------------------------------------|
E|--------------------------------------------------------------------|

Verse
e|--------------------------------------------------------------------------|
B|--------------------------------------------------------------------------|
G|----------13-14-13-11-11-13----9------11----------------------------------|
D|----11-11---------------------7------9--9---------------------------------|
A|-9-9-----------------------5-5----7-7----7--------------------------------|
E|--------------------------------------------------------------------------|
This is the verse throughout the whole song.

Chorus?
e|--------------------------------------------------------------|
B|--------------------------------------------------------------|
G|--------------------------------------------------------------|do that lots
D|999999999-----------------10^---------------------------------|of times
A|999999999----12-15-14-----------------------------------------|
E|999999999-----------------------------------------------------|
               tremolo

Then Verse.
Then Chorus again, but end that chorus with this.
e|--------------------------------------------------------------------------|
B|--------------------------------------------------------------------------|
G|----------9999------------------------------------------------------------|
D|11111111------------------------------------------------------------------|
A|----------7777------------------------------------------------------------|
E|9-9-9-9-------------------------------------------------------------------|(chords)

Interlude.
e|-------------------------------------------------------------------|
B|---------------do that---------------------------------------------|
G|-----9-10-9--9-a couple-----14141414-13131313-11111111-------------|
D|----9------10--times then:-----------------------------------------|
A|--10---------------------------------------------------------------|
E|12-----------------------------------------------------------------|
                               just fool with these notes.

Then another verse.

at the end you can hear a second guitar and it kinda sounds like this
e|--------------------------------------------------------------------------|
B|--------------------------------------------------------------------------|
G|/14-13---13---------------------------------------------------------------|
D|------16------------------------------------------------------------------|
A|--------------------------------------------------------------------------|
E|--------------------------------------------------------------------------|
Yeah, i know its not perfect, but its okay for the most part.

| /  slide
| h  hammer-on
| p  pull-off
| ~  vibrato
| +  harmonic
| x  Mute note
Добавлено: 09.07.2012
Другие материалы по этой песне:

Страница создана 31.05.2012
http://primanota.ru/blessthefall/waiting-for-tomorrow-chords.htm
Привет, Гость.
Предлагаем пройти революционный курс по гитаре.
Подарок от PrimaNota.Ru, забирай!